  0
SECTION
  2
HEADER
  9
$ACADVER
  1
AC1015
  9
$ACADMAINTVER
 70
     6
  9
$DWGCODEPAGE
  3
ANSI_1254
  9
$INSBASE
 10
0.0
 20
0.0
 30
0.0
  9
$EXTMIN
 10
0.0
 20
0.0
 30
0.0
  9
$EXTMAX
 10
279.4
 20
215.9
 30
0.0
  9
$LIMMIN
 10
0.0
 20
0.0
  9
$LIMMAX
 10
279.4
 20
215.9
  9
$ORTHOMODE
 70
     0
  9
$REGENMODE
 70
     1
  9
$FILLMODE
 70
     1
  9
$QTEXTMODE
 70
     0
  9
$MIRRTEXT
 70
     1
  9
$LTSCALE
 40
1.0
  9
$ATTMODE
 70
     1
  9
$TEXTSIZE
 40
3.5
  9
$TRACEWID
 40
1.0
  9
$TEXTSTYLE
  7
Standard
  9
$CLAYER
  8
0
  9
$CELTYPE
  6
ByLayer
  9
$CECOLOR
 62
   256
  9
$CELTSCALE
 40
1.0
  9
$DISPSILH
 70
     0
  9
$DIMSCALE
 40
1.0
  9
$DIMASZ
 40
3.5
  9
$DIMEXO
 40
1.0
  9
$DIMDLI
 40
3.75
  9
$DIMRND
 40
0.0
  9
$DIMDLE
 40
0.0
  9
$DIMEXE
 40
1.0
  9
$DIMTP
 40
0.0
  9
$DIMTM
 40
0.0
  9
$DIMTXT
 40
3.5
  9
$DIMCEN
 40
2.5
  9
$DIMTSZ
 40
0.0
  9
$DIMTOL
 70
     0
  9
$DIMLIM
 70
     0
  9
$DIMTIH
 70
     1
  9
$DIMTOH
 70
     1
  9
$DIMSE1
 70
     0
  9
$DIMSE2
 70
     0
  9
$DIMTAD
 70
     1
  9
$DIMZIN
 70
     0
  9
$DIMBLK
  1

  9
$DIMASO
 70
     1
  9
$DIMSHO
 70
     1
  9
$DIMPOST
  1

  9
$DIMAPOST
  1

  9
$DIMALT
 70
     0
  9
$DIMALTD
 70
     3
  9
$DIMALTF
 40
0.0393700787
  9
$DIMLFAC
 40
1.0
  9
$DIMTOFL
 70
     1
  9
$DIMTVP
 40
0.0
  9
$DIMTIX
 70
     0
  9
$DIMSOXD
 70
     0
  9
$DIMSAH
 70
     0
  9
$DIMBLK1
  1

  9
$DIMBLK2
  1

  9
$DIMSTYLE
  2
ISO-25
  9
$DIMCLRD
 70
     0
  9
$DIMCLRE
 70
     0
  9
$DIMCLRT
 70
     0
  9
$DIMTFAC
 40
1.0
  9
$DIMGAP
 40
1.524
  9
$DIMJUST
 70
     0
  9
$DIMSD1
 70
     0
  9
$DIMSD2
 70
     0
  9
$DIMTOLJ
 70
     0
  9
$DIMTZIN
 70
     0
  9
$DIMALTZ
 70
     0
  9
$DIMALTTZ
 70
     0
  9
$DIMUPT
 70
     0
  9
$DIMDEC
 70
     2
  9
$DIMTDEC
 70
     2
  9
$DIMALTU
 70
     2
  9
$DIMALTTD
 70
     3
  9
$DIMTXSTY
  7
Standard
  9
$DIMAUNIT
 70
     0
  9
$DIMADEC
 70
     2
  9
$DIMALTRND
 40
0.0
  9
$DIMAZIN
 70
     0
  9
$DIMDSEP
 70
    44
  9
$DIMATFIT
 70
     3
  9
$DIMFRAC
 70
     0
  9
$DIMLDRBLK
  1

  9
$DIMLUNIT
 70
     2
  9
$DIMLWD
 70
    -2
  9
$DIMLWE
 70
    -2
  9
$DIMTMOVE
 70
     0
  9
$LUNITS
 70
     2
  9
$LUPREC
 70
     2
  9
$SKETCHINC
 40
1.0
  9
$FILLETRAD
 40
10.0
  9
$AUNITS
 70
     0
  9
$AUPREC
 70
     2
  9
$MENU
  1
.
  9
$ELEVATION
 40
0.0
  9
$PELEVATION
 40
0.0
  9
$THICKNESS
 40
0.0
  9
$LIMCHECK
 70
     0
  9
$CHAMFERA
 40
0.0
  9
$CHAMFERB
 40
0.0
  9
$CHAMFERC
 40
0.0
  9
$CHAMFERD
 40
0.0
  9
$SKPOLY
 70
     0
  9
$TDCREATE
 40
2459741.614488901
  9
$TDUCREATE
 40
2459741.489488901
  9
$TDUPDATE
 40
2459741.614489086
  9
$TDUUPDATE
 40
2459741.489489086
  9
$TDINDWG
 40
0.0000000116
  9
$TDUSRTIMER
 40
0.0000000116
  9
$USRTIMER
 70
     1
  9
$ANGBASE
 50
0.0
  9
$ANGDIR
 70
     0
  9
$PDMODE
 70
     0
  9
$PDSIZE
 40
-1.0
  9
$PLINEWID
 40
0.0
  9
$SPLFRAME
 70
     0
  9
$SPLINETYPE
 70
     6
  9
$SPLINESEGS
 70
     8
  9
$HANDSEED
  5
146
  9
$SURFTAB1
 70
     6
  9
$SURFTAB2
 70
     6
  9
$SURFTYPE
 70
     6
  9
$SURFU
 70
     6
  9
$SURFV
 70
     6
  9
$UCSBASE
  2

  9
$UCSNAME
  2

  9
$UCSORG
 10
0.0
 20
0.0
 30
0.0
  9
$UCSXDIR
 10
1.0
 20
0.0
 30
0.0
  9
$UCSYDIR
 10
0.0
 20
1.0
 30
0.0
  9
$UCSORTHOREF
  2

  9
$UCSORTHOVIEW
 70
     0
  9
$UCSORGTOP
 10
0.0
 20
0.0
 30
0.0
  9
$UCSORGBOTTOM
 10
0.0
 20
0.0
 30
0.0
  9
$UCSORGLEFT
 10
0.0
 20
0.0
 30
0.0
  9
$UCSORGRIGHT
 10
0.0
 20
0.0
 30
0.0
  9
$UCSORGFRONT
 10
0.0
 20
0.0
 30
0.0
  9
$UCSORGBACK
 10
0.0
 20
0.0
 30
0.0
  9
$PUCSBASE
  2

  9
$PUCSNAME
  2

  9
$PUCSORG
 10
0.0
 20
0.0
 30
0.0
  9
$PUCSXDIR
 10
1.0
 20
0.0
 30
0.0
  9
$PUCSYDIR
 10
0.0
 20
1.0
 30
0.0
  9
$PUCSORTHOREF
  2

  9
$PUCSORTHOVIEW
 70
     0
  9
$PUCSORGTOP
 10
0.0
 20
0.0
 30
0.0
  9
$PUCSORGBOTTOM
 10
0.0
 20
0.0
 30
0.0
  9
$PUCSORGLEFT
 10
0.0
 20
0.0
 30
0.0
  9
$PUCSORGRIGHT
 10
0.0
 20
0.0
 30
0.0
  9
$PUCSORGFRONT
 10
0.0
 20
0.0
 30
0.0
  9
$PUCSORGBACK
 10
0.0
 20
0.0
 30
0.0
  9
$USERI1
 70
     0
  9
$USERI2
 70
     0
  9
$USERI3
 70
     0
  9
$USERI4
 70
     0
  9
$USERI5
 70
     0
  9
$USERR1
 40
0.0
  9
$USERR2
 40
0.0
  9
$USERR3
 40
0.0
  9
$USERR4
 40
0.0
  9
$USERR5
 40
0.0
  9
$WORLDVIEW
 70
     1
  9
$SHADEDGE
 70
     3
  9
$SHADEDIF
 70
    70
  9
$TILEMODE
 70
     1
  9
$MAXACTVP
 70
    64
  9
$PINSBASE
 10
0.0
 20
0.0
 30
0.0
  9
$PLIMCHECK
 70
     0
  9
$PEXTMIN
 10
1.0000000000E+20
 20
1.0000000000E+20
 30
1.0000000000E+20
  9
$PEXTMAX
 10
-1.0000000000E+20
 20
-1.0000000000E+20
 30
-1.0000000000E+20
  9
$PLIMMIN
 10
0.0
 20
0.0
  9
$PLIMMAX
 10
420.0
 20
297.0
  9
$UNITMODE
 70
     0
  9
$VISRETAIN
 70
     1
  9
$PLINEGEN
 70
     0
  9
$PSLTSCALE
 70
     1
  9
$TREEDEPTH
 70
  3020
  9
$CMLSTYLE
  2
Standard
  9
$CMLJUST
 70
     0
  9
$CMLSCALE
 40
20.0
  9
$PROXYGRAPHICS
 70
     1
  9
$MEASUREMENT
 70
     1
  9
$CELWEIGHT
370
    -1
  9
$ENDCAPS
280
     0
  9
$JOINSTYLE
280
     0
  9
$LWDISPLAY
290
     1
  9
$INSUNITS
 70
     4
  9
$HYPERLINKBASE
  1

  9
$STYLESHEET
  1

  9
$XEDIT
290
     1
  9
$CEPSNTYPE
380
     0
  9
$PSTYLEMODE
290
     1
  9
$FINGERPRINTGUID
  2
{215e99e1-ebe2-43df-8943-2e5bfe1ca0de}
  9
$VERSIONGUID
  2
{FAEB1C32-E019-11D5-929B-00C0DF256EC4}
  9
$EXTNAMES
290
     1
  9
$PSVPSCALE
 40
0.0
  9
$OLESTARTUP
290
     0
  0
ENDSEC
  0
SECTION
  2
CLASSES
  0
CLASS
  1
ACDBDICTIONARYWDFLT
  2
AcDbDictionaryWithDefault
  3
ObjectDBX Classes
 90
        0
280
     0
281
     0
  0
CLASS
  1
VISUALSTYLE
  2
AcDbVisualStyle
  3
ObjectDBX Classes
 90
     4095
280
     0
281
     0
  0
CLASS
  1
MATERIAL
  2
AcDbMaterial
  3
ObjectDBX Classes
 90
     1153
280
     0
281
     0
  0
CLASS
  1
SCALE
  2
AcDbScale
  3
ObjectDBX Classes
 90
     1153
280
     0
281
     0
  0
CLASS
  1
TABLESTYLE
  2
AcDbTableStyle
  3
ObjectDBX Classes
 90
     4095
280
     0
281
     0
  0
CLASS
  1
MLEADERSTYLE
  2
AcDbMLeaderStyle
  3
ACDB_MLEADERSTYLE_CLASS
 90
     4095
280
     0
281
     0
  0
CLASS
  1
SUN
  2
AcDbSun
  3
SCENEOE
 90
     1153
280
     0
281
     0
  0
CLASS
  1
ACDBPLACEHOLDER
  2
AcDbPlaceHolder
  3
ObjectDBX Classes
 90
        0
280
     0
281
     0
  0
CLASS
  1
LAYOUT
  2
AcDbLayout
  3
ObjectDBX Classes
 90
        0
280
     0
281
     0
  0
ENDSEC
  0
SECTION
  2
TABLES
  0
TABLE
  2
VPORT
  5
8
330
0
100
AcDbSymbolTable
 70
     1
  0
VPORT
  5
29
330
8
100
AcDbSymbolTableRecord
100
AcDbViewportTableRecord
  2
*Active
 70
     0
 10
0.0
 20
0.0
 11
1.0
 21
1.0
 12
139.7
 22
107.95
 13
0.0
 23
0.0
 14
10.0
 24
10.0
 15
10.0
 25
10.0
 16
0.0
 26
0.0
 36
1.0
 17
0.0
 27
0.0
 37
0.0
 40
215.9
 41
1.2941176471
 42
50.0
 43
0.0
 44
0.0
 50
0.0
 51
0.0
 71
     0
 72
  2000
 73
     1
 74
     3
 75
     0
 76
     0
 77
     0
 78
     0
281
     0
 65
     1
110
0.0
120
0.0
130
0.0
111
1.0
121
0.0
131
0.0
112
0.0
122
1.0
132
0.0
 79
     0
146
0.0
  0
ENDTAB
  0
TABLE
  2
LTYPE
  5
5
330
0
100
AcDbSymbolTable
 70
     6
  0
LTYPE
  5
14
330
5
100
AcDbSymbolTableRecord
100
AcDbLinetypeTableRecord
  2
ByBlock
 70
     0
  3

 72
    65
 73
     0
 40
0.0
  0
LTYPE
  5
15
330
5
100
AcDbSymbolTableRecord
100
AcDbLinetypeTableRecord
  2
ByLayer
 70
     0
  3

 72
    65
 73
     0
 40
0.0
  0
LTYPE
  5
16
330
5
100
AcDbSymbolTableRecord
100
AcDbLinetypeTableRecord
  2
Continuous
 70
     0
  3
Solid line
 72
    65
 73
     0
 40
0.0
  0
LTYPE
  5
6E
330
5
100
AcDbSymbolTableRecord
100
AcDbLinetypeTableRecord
  2
HIDDEN
 70
     0
  3
Hidden __ __ __ __ __ __ __ __ __ __ __ __ __ __
 72
    65
 73
     2
 40
1.905
 49
1.27
 74
     0
 49
-0.635
 74
     0
  0
LTYPE
  5
6F
330
5
100
AcDbSymbolTableRecord
100
AcDbLinetypeTableRecord
  2
PHANTOM
 70
     0
  3
Phantom ______  __  __  ______  __  __  ______
 72
    65
 73
     6
 40
12.7
 49
6.35
 74
     0
 49
-1.27
 74
     0
 49
1.27
 74
     0
 49
-1.27
 74
     0
 49
1.27
 74
     0
 49
-1.27
 74
     0
  0
LTYPE
  5
70
330
5
100
AcDbSymbolTableRecord
100
AcDbLinetypeTableRecord
  2
CENTER
 70
     0
  3
Center ____ _ ____ _ ____ _ ____ _ ____ _ ____
 72
    65
 73
     4
 40
10.16
 49
6.35
 74
     0
 49
-1.27
 74
     0
 49
1.27
 74
     0
 49
-1.27
 74
     0
  0
LTYPE
  5
71
330
5
100
AcDbSymbolTableRecord
100
AcDbLinetypeTableRecord
  2
CENTERX2
 70
     0
  3
Center (2x) ________  __  ________  __  _____
 72
    65
 73
     4
 40
20.32
 49
12.7
 74
     0
 49
-2.54
 74
     0
 49
2.54
 74
     0
 49
-2.54
 74
     0
  0
LTYPE
  5
72
330
5
100
AcDbSymbolTableRecord
100
AcDbLinetypeTableRecord
  2
DOT2
 70
     0
  3
Dot (.5x) ........................................
 72
    65
 73
     2
 40
0.635
 49
0.0
 74
     0
 49
-0.635
 74
     0
  0
ENDTAB
  0
TABLE
  2
LAYER
  5
2
330
0
100
AcDbSymbolTable
 70
    17
  0
LAYER
  5
10
330
2
100
AcDbSymbolTableRecord
100
AcDbLayerTableRecord
  2
0
 70
     0
 62
     7
  6
Continuous
370
    -3
390
F
  0
LAYER
  5
73
330
2
100
AcDbSymbolTableRecord
100
AcDbLayerTableRecord
  2
FORMAT
 70
     0
 62
     7
  6
Continuous
370
    -3
390
F
  0
LAYER
  5
74
330
2
100
AcDbSymbolTableRecord
100
AcDbLayerTableRecord
  2
YARDIMCI_GEOMETRI
 70
     0
 62
    -6
  6
Continuous
290
     0
370
    -3
390
F
  0
LAYER
  5
75
330
2
100
AcDbSymbolTableRecord
100
AcDbLayerTableRecord
  2
SAYFA_CERCEVESI
 70
     0
 62
     7
  6
Continuous
370
    25
390
F
  0
LAYER
  5
76
330
2
100
AcDbSymbolTableRecord
100
AcDbLayerTableRecord
  2
ANTET
 70
     0
 62
     7
  6
Continuous
370
    -3
390
F
  0
LAYER
  5
77
330
2
100
AcDbSymbolTableRecord
100
AcDbLayerTableRecord
  2
OLCU
 70
     0
 62
   150
  6
Continuous
370
    -3
390
F
  0
LAYER
  5
78
330
2
100
AcDbSymbolTableRecord
100
AcDbLayerTableRecord
  2
METIN
 70
     0
 62
    96
  6
Continuous
370
    -3
390
F
  0
LAYER
  5
79
330
2
100
AcDbSymbolTableRecord
100
AcDbLayerTableRecord
  2
BALON
 70
     0
 62
     5
  6
Continuous
370
    -3
390
F
  0
LAYER
  5
7A
330
2
100
AcDbSymbolTableRecord
100
AcDbLayerTableRecord
  2
VURGU
 70
     0
 62
     7
  6
Continuous
370
    -3
390
F
  0
LAYER
  5
7B
330
2
100
AcDbSymbolTableRecord
100
AcDbLayerTableRecord
  2
SILIK
 70
     0
 62
     7
  6
Continuous
370
    -3
390
F
  0
LAYER
  5
7C
330
2
100
AcDbSymbolTableRecord
100
AcDbLayerTableRecord
  2
MODEL
 70
     0
 62
     7
  6
Continuous
370
    -3
390
F
  0
LAYER
  5
7D
330
2
100
AcDbSymbolTableRecord
100
AcDbLayerTableRecord
  2
DETAYLANDıRMA
 70
     0
 62
   190
  6
Continuous
370
    -3
390
F
  0
LAYER
  5
7E
330
2
100
AcDbSymbolTableRecord
100
AcDbLayerTableRecord
  2
TOLERANS
 70
     0
 62
   230
  6
Continuous
370
    -3
390
F
  0
LAYER
  5
7F
330
2
100
AcDbSymbolTableRecord
100
AcDbLayerTableRecord
  2
MERKEZ_CIZGILERI
 70
     0
 62
    30
  6
Continuous
370
    -3
390
F
  0
LAYER
  5
80
330
2
100
AcDbSymbolTableRecord
100
AcDbLayerTableRecord
  2
KESIT-DETAY_CIZGILERI
 70
     0
 62
     7
  6
Continuous
370
    -3
390
F
  0
LAYER
  5
81
330
2
100
AcDbSymbolTableRecord
100
AcDbLayerTableRecord
  2
\U+041E\U+0421\U+0415\U+0412\U+042B\U+0415
 70
     0
 62
     7
  6
Continuous
370
    -3
390
F
  0
LAYER
  5
82
330
2
100
AcDbSymbolTableRecord
100
AcDbLayerTableRecord
  2
\U+0412\U+041E\U+0414\U+042F\U+041D\U+042B\U+0415_\U+0417\U+041D\U+0410\U+041A\U+0418
 70
     0
 62
    11
  6
Continuous
370
    -3
390
F
  0
ENDTAB
  0
TABLE
  2
STYLE
  5
3
330
0
100
AcDbSymbolTable
 70
     1
  0
STYLE
  5
11
330
3
100
AcDbSymbolTableRecord
100
AcDbTextStyleTableRecord
  2
Standard
 70
     0
 40
0.0
 41
1.0
 50
0.0
 71
     0
 42
3.5
  3
txt
  4

  0
ENDTAB
  0
TABLE
  2
VIEW
  5
6
330
0
100
AcDbSymbolTable
 70
     0
  0
ENDTAB
  0
TABLE
  2
UCS
  5
7
330
0
100
AcDbSymbolTable
 70
     0
  0
ENDTAB
  0
TABLE
  2
APPID
  5
9
330
0
100
AcDbSymbolTable
 70
     1
  0
APPID
  5
12
330
9
100
AcDbSymbolTableRecord
100
AcDbRegAppTableRecord
  2
ACAD
 70
     0
  0
ENDTAB
  0
TABLE
  2
DIMSTYLE
  5
A
330
0
100
AcDbSymbolTable
 70
     1
100
AcDbDimStyleTable
  0
DIMSTYLE
105
27
330
A
100
AcDbSymbolTableRecord
100
AcDbDimStyleTableRecord
  2
ISO-25
 70
     0
 41
2.5
 42
0.625
 43
3.75
 44
1.25
 73
     0
 74
     0
 77
     1
 78
     8
140
2.5
141
2.5
143
0.0393700787
147
0.625
171
     3
172
     1
178
     0
271
     2
272
     2
274
     3
278
    44
283
     0
284
     8
340
11
  0
ENDTAB
  0
TABLE
  2
BLOCK_RECORD
  5
1
330
0
100
AcDbSymbolTable
 70
     5
  0
BLOCK_RECORD
  5
1F
330
1
100
AcDbSymbolTableRecord
100
AcDbBlockTableRecord
  2
*Model_Space
340
22
  0
BLOCK_RECORD
  5
1B
330
1
100
AcDbSymbolTableRecord
100
AcDbBlockTableRecord
  2
*Paper_Space
340
1E
  0
BLOCK_RECORD
  5
23
330
1
100
AcDbSymbolTableRecord
100
AcDbBlockTableRecord
  2
*Paper_Space0
340
26
  0
BLOCK_RECORD
  5
C8
330
1
100
AcDbSymbolTableRecord
100
AcDbBlockTableRecord
  2
SW_CENTERMARKSYMBOL_0
340
0
102
{BLKREFS
331
D3
102
}
  0
BLOCK_RECORD
  5
F3
330
1
100
AcDbSymbolTableRecord
100
AcDbBlockTableRecord
  2
SW_CENTERMARKSYMBOL_1
340
0
102
{BLKREFS
331
FE
102
}
  0
BLOCK_RECORD
  5
FF
330
1
100
AcDbSymbolTableRecord
100
AcDbBlockTableRecord
  2
SW_CENTERMARKSYMBOL_2
340
0
102
{BLKREFS
331
10A
102
}
  0
BLOCK_RECORD
  5
10B
330
1
100
AcDbSymbolTableRecord
100
AcDbBlockTableRecord
  2
SW_CENTERMARKSYMBOL_3
340
0
102
{BLKREFS
331
116
102
}
  0
ENDTAB
  0
ENDSEC
  0
SECTION
  2
BLOCKS
  0
BLOCK
  5
20
330
1F
100
AcDbEntity
  8
0
100
AcDbBlockBegin
  2
*Model_Space
 70
     0
 10
0.0
 20
0.0
 30
0.0
  3
*Model_Space
  1

  0
ENDBLK
  5
21
330
1F
100
AcDbEntity
  8
0
100
AcDbBlockEnd
  0
BLOCK
  5
1C
330
1B
100
AcDbEntity
 67
     1
  8
0
100
AcDbBlockBegin
  2
*Paper_Space
 70
     0
 10
0.0
 20
0.0
 30
0.0
  3
*Paper_Space
  1

  0
ENDBLK
  5
1D
330
1B
100
AcDbEntity
 67
     1
  8
0
100
AcDbBlockEnd
  0
BLOCK
  5
24
330
23
100
AcDbEntity
  8
0
100
AcDbBlockBegin
  2
*Paper_Space0
 70
     0
 10
0.0
 20
0.0
 30
0.0
  3
*Paper_Space0
  1

  0
ENDBLK
  5
25
330
23
100
AcDbEntity
  8
0
100
AcDbBlockEnd
  0
BLOCK
  5
C9
330
C8
100
AcDbEntity
  8
0
100
AcDbBlockBegin
  2
SW_CENTERMARKSYMBOL_0
 70
     0
 10
0.0
 20
0.0
 30
0.0
  3
SW_CENTERMARKSYMBOL_0
  1

  0
LINE
  5
CB
330
C8
100
AcDbEntity
  8
FORMAT
 62
     0
100
AcDbLine
 10
0.0
 20
0.0
 30
0.0
 11
0.0
 21
2.5
 31
0.0
  0
LINE
  5
CC
330
C8
100
AcDbEntity
  8
FORMAT
 62
     0
100
AcDbLine
 10
0.0
 20
0.0
 30
0.0
 11
-2.5
 21
0.0
 31
0.0
  0
LINE
  5
CD
330
C8
100
AcDbEntity
  8
FORMAT
 62
     0
100
AcDbLine
 10
0.0
 20
0.0
 30
0.0
 11
0.0
 21
-2.5
 31
0.0
  0
LINE
  5
CE
330
C8
100
AcDbEntity
  8
FORMAT
 62
     0
100
AcDbLine
 10
0.0
 20
0.0
 30
0.0
 11
2.5
 21
0.0
 31
0.0
  0
LINE
  5
CF
330
C8
100
AcDbEntity
  8
FORMAT
 62
     0
100
AcDbLine
 10
0.0
 20
5.0
 30
0.0
 11
0.0
 21
15.5
 31
0.0
  0
LINE
  5
D0
330
C8
100
AcDbEntity
  8
FORMAT
 62
     0
100
AcDbLine
 10
-5.0
 20
0.0
 30
0.0
 11
-15.5
 21
0.0
 31
0.0
  0
LINE
  5
D1
330
C8
100
AcDbEntity
  8
FORMAT
 62
     0
100
AcDbLine
 10
0.0
 20
-5.0
 30
0.0
 11
0.0
 21
-15.5
 31
0.0
  0
LINE
  5
D2
330
C8
100
AcDbEntity
  8
FORMAT
 62
     0
100
AcDbLine
 10
5.0
 20
0.0
 30
0.0
 11
15.5
 21
0.0
 31
0.0
  0
ENDBLK
  5
CA
330
C8
100
AcDbEntity
  8
0
100
AcDbBlockEnd
  0
BLOCK
  5
F4
330
F3
100
AcDbEntity
  8
0
100
AcDbBlockBegin
  2
SW_CENTERMARKSYMBOL_1
 70
     0
 10
0.0
 20
0.0
 30
0.0
  3
SW_CENTERMARKSYMBOL_1
  1

  0
LINE
  5
F6
330
F3
100
AcDbEntity
  8
FORMAT
 62
     0
100
AcDbLine
 10
0.0
 20
0.0
 30
0.0
 11
0.0
 21
2.5
 31
0.0
  0
LINE
  5
F7
330
F3
100
AcDbEntity
  8
FORMAT
 62
     0
100
AcDbLine
 10
0.0
 20
0.0
 30
0.0
 11
-2.5
 21
0.0
 31
0.0
  0
LINE
  5
F8
330
F3
100
AcDbEntity
  8
FORMAT
 62
     0
100
AcDbLine
 10
0.0
 20
0.0
 30
0.0
 11
0.0
 21
-2.5
 31
0.0
  0
LINE
  5
F9
330
F3
100
AcDbEntity
  8
FORMAT
 62
     0
100
AcDbLine
 10
0.0
 20
0.0
 30
0.0
 11
2.5
 21
0.0
 31
0.0
  0
LINE
  5
FA
330
F3
100
AcDbEntity
  8
FORMAT
 62
     0
100
AcDbLine
 10
0.0
 20
5.0
 30
0.0
 11
0.0
 21
18.5
 31
0.0
  0
LINE
  5
FB
330
F3
100
AcDbEntity
  8
FORMAT
 62
     0
100
AcDbLine
 10
-5.0
 20
0.0
 30
0.0
 11
-18.5
 21
0.0
 31
0.0
  0
LINE
  5
FC
330
F3
100
AcDbEntity
  8
FORMAT
 62
     0
100
AcDbLine
 10
0.0
 20
-5.0
 30
0.0
 11
0.0
 21
-18.5
 31
0.0
  0
LINE
  5
FD
330
F3
100
AcDbEntity
  8
FORMAT
 62
     0
100
AcDbLine
 10
5.0
 20
0.0
 30
0.0
 11
18.5
 21
0.0
 31
0.0
  0
ENDBLK
  5
F5
330
F3
100
AcDbEntity
  8
0
100
AcDbBlockEnd
  0
BLOCK
  5
100
330
FF
100
AcDbEntity
  8
0
100
AcDbBlockBegin
  2
SW_CENTERMARKSYMBOL_2
 70
     0
 10
0.0
 20
0.0
 30
0.0
  3
SW_CENTERMARKSYMBOL_2
  1

  0
LINE
  5
102
330
FF
100
AcDbEntity
  8
FORMAT
 62
     0
100
AcDbLine
 10
0.0
 20
0.0
 30
0.0
 11
0.0
 21
2.5
 31
0.0
  0
LINE
  5
103
330
FF
100
AcDbEntity
  8
FORMAT
 62
     0
100
AcDbLine
 10
0.0
 20
0.0
 30
0.0
 11
-2.5
 21
0.0
 31
0.0
  0
LINE
  5
104
330
FF
100
AcDbEntity
  8
FORMAT
 62
     0
100
AcDbLine
 10
0.0
 20
0.0
 30
0.0
 11
0.0
 21
-2.5
 31
0.0
  0
LINE
  5
105
330
FF
100
AcDbEntity
  8
FORMAT
 62
     0
100
AcDbLine
 10
0.0
 20
0.0
 30
0.0
 11
2.5
 21
0.0
 31
0.0
  0
LINE
  5
106
330
FF
100
AcDbEntity
  8
FORMAT
 62
     0
100
AcDbLine
 10
0.0
 20
5.0
 30
0.0
 11
0.0
 21
9.5
 31
0.0
  0
LINE
  5
107
330
FF
100
AcDbEntity
  8
FORMAT
 62
     0
100
AcDbLine
 10
-5.0
 20
0.0
 30
0.0
 11
-9.5
 21
0.0
 31
0.0
  0
LINE
  5
108
330
FF
100
AcDbEntity
  8
FORMAT
 62
     0
100
AcDbLine
 10
0.0
 20
-5.0
 30
0.0
 11
0.0
 21
-9.5
 31
0.0
  0
LINE
  5
109
330
FF
100
AcDbEntity
  8
FORMAT
 62
     0
100
AcDbLine
 10
5.0
 20
0.0
 30
0.0
 11
9.5
 21
0.0
 31
0.0
  0
ENDBLK
  5
101
330
FF
100
AcDbEntity
  8
0
100
AcDbBlockEnd
  0
BLOCK
  5
10C
330
10B
100
AcDbEntity
  8
0
100
AcDbBlockBegin
  2
SW_CENTERMARKSYMBOL_3
 70
     0
 10
0.0
 20
0.0
 30
0.0
  3
SW_CENTERMARKSYMBOL_3
  1

  0
LINE
  5
10E
330
10B
100
AcDbEntity
  8
FORMAT
 62
     0
100
AcDbLine
 10
0.0
 20
0.0
 30
0.0
 11
0.0
 21
2.5
 31
0.0
  0
LINE
  5
10F
330
10B
100
AcDbEntity
  8
FORMAT
 62
     0
100
AcDbLine
 10
0.0
 20
0.0
 30
0.0
 11
-2.5
 21
0.0
 31
0.0
  0
LINE
  5
110
330
10B
100
AcDbEntity
  8
FORMAT
 62
     0
100
AcDbLine
 10
0.0
 20
0.0
 30
0.0
 11
0.0
 21
-2.5
 31
0.0
  0
LINE
  5
111
330
10B
100
AcDbEntity
  8
FORMAT
 62
     0
100
AcDbLine
 10
0.0
 20
0.0
 30
0.0
 11
2.5
 21
0.0
 31
0.0
  0
LINE
  5
112
330
10B
100
AcDbEntity
  8
FORMAT
 62
     0
100
AcDbLine
 10
0.0
 20
5.0
 30
0.0
 11
0.0
 21
9.5
 31
0.0
  0
LINE
  5
113
330
10B
100
AcDbEntity
  8
FORMAT
 62
     0
100
AcDbLine
 10
-5.0
 20
0.0
 30
0.0
 11
-9.5
 21
0.0
 31
0.0
  0
LINE
  5
114
330
10B
100
AcDbEntity
  8
FORMAT
 62
     0
100
AcDbLine
 10
0.0
 20
-5.0
 30
0.0
 11
0.0
 21
-9.5
 31
0.0
  0
LINE
  5
115
330
10B
100
AcDbEntity
  8
FORMAT
 62
     0
100
AcDbLine
 10
5.0
 20
0.0
 30
0.0
 11
9.5
 21
0.0
 31
0.0
  0
ENDBLK
  5
10D
330
10B
100
AcDbEntity
  8
0
100
AcDbBlockEnd
  0
ENDSEC
  0
SECTION
  2
ENTITIES
  0
LINE
  5
83
330
1F
100
AcDbEntity
  8
0
  6
Continuous
 62
     7
370
    25
100
AcDbLine
 10
171.1807140607
 20
5.7384285714
 30
0.0
 11
211.1807140607
 21
5.7384285714
 31
0.0
  0
LINE
  5
84
330
1F
100
AcDbEntity
  8
0
  6
Continuous
 62
     7
370
    25
100
AcDbLine
 10
71.1807140607
 20
5.7384285714
 30
0.0
 11
111.1807140607
 21
5.7384285714
 31
0.0
  0
LINE
  5
85
330
1F
100
AcDbEntity
  8
0
  6
Continuous
 62
     7
370
    25
100
AcDbLine
 10
74.2035030877
 20
144.7384285714
 30
0.0
 11
71.1807140607
 21
144.7384285714
 31
0.0
  0
LINE
  5
86
330
1F
100
AcDbEntity
  8
0
  6
Continuous
 62
     7
370
    25
100
AcDbLine
 10
125.2360641985
 20
144.7384285714
 30
0.0
 11
88.1790709877
 21
144.7384285714
 31
0.0
  0
LINE
  5
87
330
1F
100
AcDbEntity
  8
0
  6
Continuous
 62
     7
370
    25
100
AcDbLine
 10
194.2035030877
 20
144.7384285714
 30
0.0
 11
157.1482646274
 21
144.7384285714
 31
0.0
  0
LINE
  5
88
330
1F
100
AcDbEntity
  8
0
  6
Continuous
 62
     7
370
    25
100
AcDbLine
 10
211.1807140607
 20
144.7384285714
 30
0.0
 11
208.1790709877
 21
144.7384285714
 31
0.0
  0
LINE
  5
89
330
1F
100
AcDbEntity
  8
0
  6
Continuous
 62
     7
370
    25
100
AcDbLine
 10
125.1807140607
 20
192.7384285714
 30
0.0
 11
125.1807140607
 21
144.7257149605
 31
0.0
  0
LINE
  5
8A
330
1F
100
AcDbEntity
  8
0
  6
Continuous
 62
     7
370
    25
100
AcDbLine
 10
157.1807140607
 20
144.7310020314
 30
0.0
 11
157.1807140607
 21
192.7384285714
 31
0.0
  0
LINE
  5
8B
330
1F
100
AcDbEntity
  8
0
  6
Continuous
 62
     7
370
    25
100
AcDbLine
 10
74.1807140607
 20
159.7384285714
 30
0.0
 11
74.1807140607
 21
144.7361405574
 31
0.0
  0
LINE
  5
8C
330
1F
100
AcDbEntity
  8
0
  6
Continuous
 62
     7
370
    25
100
AcDbLine
 10
88.1807140607
 20
144.7382653355
 30
0.0
 11
88.1807140607
 21
159.7384285714
 31
0.0
  0
LINE
  5
8D
330
1F
100
AcDbEntity
  8
0
  6
Continuous
 62
     7
370
    25
100
AcDbLine
 10
194.1807140607
 20
159.7384285714
 30
0.0
 11
194.1807140607
 21
144.7361405574
 31
0.0
  0
LINE
  5
8E
330
1F
100
AcDbEntity
  8
0
  6
Continuous
 62
     7
370
    25
100
AcDbLine
 10
208.1807140607
 20
144.7382653355
 30
0.0
 11
208.1807140607
 21
159.7384285714
 31
0.0
  0
LINE
  5
8F
330
1F
100
AcDbEntity
  8
0
  6
Continuous
 62
     7
370
    25
100
AcDbLine
 10
211.1807140607
 20
77.2384285714
 30
0.0
 11
71.1807140607
 21
77.2384285714
 31
0.0
  0
LINE
  5
90
330
1F
100
AcDbEntity
  8
0
  6
Continuous
 62
     7
370
    25
100
AcDbLine
 10
71.1807140607
 20
84.2384285714
 30
0.0
 11
71.1807140607
 21
77.2384285714
 31
0.0
  0
LINE
  5
91
330
1F
100
AcDbEntity
  8
0
  6
Continuous
 62
     7
370
    25
100
AcDbLine
 10
211.1807140607
 20
84.2384285714
 30
0.0
 11
71.1807140607
 21
84.2384285714
 31
0.0
  0
LINE
  5
92
330
1F
100
AcDbEntity
  8
0
  6
Continuous
 62
     7
370
    25
100
AcDbLine
 10
211.1807140607
 20
84.2384285714
 30
0.0
 11
211.1807140607
 21
77.2384285714
 31
0.0
  0
LINE
  5
93
330
1F
100
AcDbEntity
  8
0
  6
Continuous
 62
     7
370
    25
100
AcDbLine
 10
71.1807140607
 20
73.2384285714
 30
0.0
 11
71.1807140607
 21
66.2384285714
 31
0.0
  0
LINE
  5
94
330
1F
100
AcDbEntity
  8
0
  6
Continuous
 62
     7
370
    25
100
AcDbLine
 10
211.1807140607
 20
73.2384285714
 30
0.0
 11
71.1807140607
 21
73.2384285714
 31
0.0
  0
LINE
  5
95
330
1F
100
AcDbEntity
  8
0
  6
Continuous
 62
     7
370
    25
100
AcDbLine
 10
211.1807140607
 20
73.2384285714
 30
0.0
 11
211.1807140607
 21
66.2384285714
 31
0.0
  0
LINE
  5
96
330
1F
100
AcDbEntity
  8
0
  6
Continuous
 62
     7
370
    25
100
AcDbLine
 10
211.1807140607
 20
66.2384285714
 30
0.0
 11
71.1807140607
 21
66.2384285714
 31
0.0
  0
SPLINE
  5
97
330
1F
100
AcDbEntity
  8
0
  6
Continuous
 62
     7
370
    25
100
AcDbSpline
210
0.0
220
0.0
230
1.0
 70
     8
 71
     3
 72
    17
 73
    13
 74
     0
 42
0.00000001
 43
0.00000001
 40
0.0
 40
0.0
 40
0.0
 40
0.0
 40
0.1054785986163193
 40
0.2140256514864552
 40
0.3195015281586246
 40
0.4280178275189758
 40
0.533829160276837
 40
0.6426952994727457
 40
0.7487162822936207
 40
0.8578318348073403
 40
0.9634870199644089
 40
1.0
 40
1.0
 40
1.0
 40
1.0
 10
81.18071406074249
 20
144.3850120011252
 30
0.0
 10
80.79387488952092
 20
144.3869069486997
 30
0.0
 10
80.00894309551465
 20
144.3907519693436
 30
0.0
 10
78.86994813276172
 20
144.4208553315783
 30
0.0
 10
77.78657129999377
 20
144.4656247784258
 30
0.0
 10
76.80765896465485
 20
144.5211277746358
 30
0.0
 10
75.9428010817369
 20
144.5816223550617
 30
0.0
 10
75.23294665919569
 20
144.6393985718227
 30
0.0
 10
74.68184942621207
 20
144.6892744096879
 30
0.0
 10
74.33381238604034
 20
144.7230123377063
 30
0.0
 10
74.17263820086545
 20
144.7392388877122
 30
0.0
 10
74.19719593648732
 20
144.7367722677809
 30
0.0
 10
74.20350308766469
 20
144.7361387669955
 30
0.0
  0
SPLINE
  5
98
330
1F
100
AcDbEntity
  8
0
  6
Continuous
 62
     7
370
    25
100
AcDbSpline
210
0.0
220
0.0
230
1.0
 70
     8
 71
     3
 72
    17
 73
    13
 74
     0
 42
0.00000001
 43
0.00000001
 40
0.0
 40
0.0
 40
0.0
 40
0.0
 40
0.0017778996121553
 40
0.1071534716213737
 40
0.2155868440279362
 40
0.3209608986164544
 40
0.4293652132450388
 40
0.5351939399051356
 40
0.6440780379486646
 40
0.7501154386849765
 40
0.8592480043494646
 40
0.9999999999999999
 40
0.9999999999999999
 40
0.9999999999999999
 40
0.9999999999999999
 10
88.17907098770061
 20
144.7382642222443
 30
0.0
 10
88.1796179479066
 20
144.7383189300803
 30
0.0
 10
88.21258307400754
 20
144.7416161548028
 30
0.0
 10
88.09704628668158
 20
144.7299686038341
 30
0.0
 10
87.82171873621
 20
144.7028526901292
 30
0.0
 10
87.33188564848813
 20
144.6573000647748
 30
0.0
 10
86.6801452459152
 20
144.602066838492
 30
0.0
 10
85.86396453123058
 20
144.541588106536
 30
0.0
 10
84.92165830051873
 20
144.4836331505787
 30
0.0
 10
83.86271012675046
 20
144.4343909636943
 30
0.0
 10
82.61476955448396
 20
144.3942948776753
 30
0.0
 10
81.69742497532164
 20
144.3883567556713
 30
0.0
 10
81.18071406074249
 20
144.3850120011252
 30
0.0
  0
SPLINE
  5
99
330
1F
100
AcDbEntity
  8
0
  6
Continuous
 62
     7
370
    25
100
AcDbSpline
210
0.0
220
0.0
230
1.0
 70
     8
 71
     3
 72
    17
 73
    13
 74
     0
 42
0.00000001
 43
0.00000001
 40
0.0
 40
0.0
 40
0.0
 40
0.0
 40
0.1039051389234276
 40
0.210875305516178
 40
0.3147661678289398
 40
0.4215764858410094
 40
0.5272079329675656
 40
0.6358291544727894
 40
0.7426077493824349
 40
0.8525867580525854
 40
0.9574973871396284
 40
0.9999999999999999
 40
0.9999999999999999
 40
0.9999999999999999
 40
0.9999999999999999
 10
141.1807140607425
 20
142.8716304770015
 30
0.0
 10
140.3072992495439
 20
142.8815120442989
 30
0.0
 10
138.5347053522432
 20
142.9015666685879
 30
0.0
 10
135.9641527100754
 20
143.0582733492124
 30
0.0
 10
133.5204789921944
 20
143.2905278527711
 30
0.0
 10
131.3001319903059
 20
143.579067712072
 30
0.0
 10
129.3234503047481
 20
143.8953582074339
 30
0.0
 10
127.6796607917603
 20
144.2010207471631
 30
0.0
 10
126.3899264558596
 20
144.4675125018981
 30
0.0
 10
125.5641232493122
 20
144.6502778768616
 30
0.0
 10
125.1732654768932
 20
144.7401316344189
 30
0.0
 10
125.2220100282392
 20
144.7289382721094
 30
0.0
 10
125.2360641984585
 20
144.7257109694697
 30
0.0
  0
SPLINE
  5
9A
330
1F
100
AcDbEntity
  8
0
  6
Continuous
 62
     7
370
    25
100
AcDbSpline
210
0.0
220
0.0
230
1.0
 70
     8
 71
     3
 72
    17
 73
    13
 74
     0
 42
0.00000001
 43
0.00000001
 40
0.0
 40
0.0
 40
0.0
 40
0.0
 40
0.0840657701688235
 40
0.1906121155921394
 40
0.2937980773000171
 40
0.3998600126421435
 40
0.5051951503912171
 40
0.6134942794349079
 40
0.7203095679762033
 40
0.8303082053124028
 40
0.9143583642042136
 40
1.0
 40
1.0
 40
1.0
 40
1.0
 10
157.1482646273815
 20
144.7309837344956
 30
0.0
 10
157.1340912402242
 20
144.7276882970264
 30
0.0
 10
157.1019542681161
 20
144.7202161676861
 30
0.0
 10
156.534371637104
 20
144.59107019788
 30
0.0
 10
155.5559296593439
 20
144.3793734523096
 30
0.0
 10
154.1832879324441
 20
144.10448956155
 30
0.0
 10
152.4358536066723
 20
143.7931046582573
 30
0.0
 10
150.3686743269223
 20
143.4811258857479
 30
0.0
 10
148.0068754375499
 20
143.2000737093993
 30
0.0
 10
145.6315448778317
 20
143.0051761670661
 30
0.0
 10
143.3263678652874
 20
142.8915480527667
 30
0.0
 10
141.9003899031295
 20
142.8783110505809
 30
0.0
 10
141.1807140607425
 20
142.8716304770015
 30
0.0
  0
SPLINE
  5
9B
330
1F
100
AcDbEntity
  8
0
  6
Continuous
 62
     7
370
    25
100
AcDbSpline
210
0.0
220
0.0
230
1.0
 70
     8
 71
     3
 72
    17
 73
    13
 74
     0
 42
0.00000001
 43
0.00000001
 40
0.0
 40
0.0
 40
0.0
 40
0.0
 40
0.1054785986163193
 40
0.2140256514864552
 40
0.3195015281586247
 40
0.4280178275189758
 40
0.533829160276837
 40
0.6426952994727452
 40
0.7487162822936205
 40
0.8578318348073406
 40
0.9634870199644091
 40
1.0
 40
1.0
 40
1.0
 40
1.0
 10
201.1807140607425
 20
144.3850120011252
 30
0.0
 10
200.7938748895209
 20
144.3869069486997
 30
0.0
 10
200.0089430955146
 20
144.3907519693437
 30
0.0
 10
198.8699481327618
 20
144.4208553315783
 30
0.0
 10
197.7865712999937
 20
144.4656247784258
 30
0.0
 10
196.8076589646549
 20
144.5211277746358
 30
0.0
 10
195.9428010817369
 20
144.5816223550617
 30
0.0
 10
195.2329466591957
 20
144.6393985718226
 30
0.0
 10
194.6818494262121
 20
144.6892744096879
 30
0.0
 10
194.3338123860404
 20
144.7230123377064
 30
0.0
 10
194.1726382008655
 20
144.7392388877122
 30
0.0
 10
194.1971959364873
 20
144.7367722677809
 30
0.0
 10
194.2035030876647
 20
144.7361387669955
 30
0.0
  0
SPLINE
  5
9C
330
1F
100
AcDbEntity
  8
0
  6
Continuous
 62
     7
370
    25
100
AcDbSpline
210
0.0
220
0.0
230
1.0
 70
     8
 71
     3
 72
    17
 73
    13
 74
     0
 42
0.00000001
 43
0.00000001
 40
0.0
 40
0.0
 40
0.0
 40
0.0
 40
0.0017778996121553
 40
0.1071534716213737
 40
0.2155868440279361
 40
0.320960898616454
 40
0.4293652132450382
 40
0.5351939399051343
 40
0.6440780379486638
 40
0.7501154386849759
 40
0.8592480043494652
 40
0.9999999999999999
 40
0.9999999999999999
 40
0.9999999999999999
 40
0.9999999999999999
 10
208.1790709877006
 20
144.7382642222443
 30
0.0
 10
208.1796179479066
 20
144.7383189300803
 30
0.0
 10
208.2125830740075
 20
144.7416161548031
 30
0.0
 10
208.0970462866817
 20
144.729968603834
 30
0.0
 10
207.82171873621
 20
144.7028526901292
 30
0.0
 10
207.3318856484881
 20
144.6573000647748
 30
0.0
 10
206.6801452459152
 20
144.602066838492
 30
0.0
 10
205.8639645312306
 20
144.541588106536
 30
0.0
 10
204.9216583005187
 20
144.4836331505787
 30
0.0
 10
203.8627101267504
 20
144.4343909636943
 30
0.0
 10
202.614769554484
 20
144.3942948776753
 30
0.0
 10
201.6974249753216
 20
144.3883567556713
 30
0.0
 10
201.1807140607425
 20
144.3850120011252
 30
0.0
  0
LINE
  5
9D
330
1F
100
AcDbEntity
  8
0
  6
Continuous
 62
     7
370
    25
100
AcDbLine
 10
111.1807140607
 20
65.2384285714
 30
0.0
 11
171.1807140607
 21
65.2384285714
 31
0.0
  0
LINE
  5
9E
330
1F
100
AcDbEntity
  8
0
  6
Continuous
 62
     7
370
    25
100
AcDbLine
 10
111.1807140607
 20
5.7384285714
 30
0.0
 11
111.1807140607
 21
65.2384285714
 31
0.0
  0
LINE
  5
9F
330
1F
100
AcDbEntity
  8
0
  6
Continuous
 62
     7
370
    25
100
AcDbLine
 10
171.1807140607
 20
65.2384285714
 30
0.0
 11
171.1807140607
 21
5.7384285714
 31
0.0
  0
LINE
  5
A0
330
1F
100
AcDbEntity
  8
0
  6
Continuous
 62
     7
370
    25
100
AcDbLine
 10
71.1807140607
 20
66.2384285714
 30
0.0
 11
71.1807140607
 21
5.7384285714
 31
0.0
  0
LINE
  5
A1
330
1F
100
AcDbEntity
  8
0
  6
Continuous
 62
     7
370
    25
100
AcDbLine
 10
71.1807140607
 20
144.7384285714
 30
0.0
 11
71.1807140607
 21
84.2384285714
 31
0.0
  0
LINE
  5
A2
330
1F
100
AcDbEntity
  8
0
  6
Continuous
 62
     7
370
    25
100
AcDbLine
 10
211.1807140607
 20
66.2384285714
 30
0.0
 11
211.1807140607
 21
5.7384285714
 31
0.0
  0
LINE
  5
A3
330
1F
100
AcDbEntity
  8
0
  6
Continuous
 62
     7
370
    25
100
AcDbLine
 10
211.1807140607
 20
144.7384285714
 30
0.0
 11
211.1807140607
 21
84.2384285714
 31
0.0
  0
LINE
  5
A4
330
1F
100
AcDbEntity
  8
0
  6
Continuous
 62
     7
370
    25
100
AcDbLine
 10
71.1807140607
 20
77.2384285714
 30
0.0
 11
71.1807140607
 21
73.2384285714
 31
0.0
  0
LINE
  5
A5
330
1F
100
AcDbEntity
  8
0
  6
Continuous
 62
     7
370
    25
100
AcDbLine
 10
211.1807140607
 20
77.2384285714
 30
0.0
 11
211.1807140607
 21
73.2384285714
 31
0.0
  0
LINE
  5
A6
330
1F
100
AcDbEntity
  8
0
  6
Continuous
 62
     7
370
    25
100
AcDbLine
 10
141.1807140607
 20
192.7384285714
 30
0.0
 11
157.1807140607
 21
192.7384285714
 31
0.0
  0
LINE
  5
A7
330
1F
100
AcDbEntity
  8
0
  6
Continuous
 62
     7
370
    25
100
AcDbLine
 10
125.1807140607
 20
192.7384285714
 30
0.0
 11
141.1807140607
 21
192.7384285714
 31
0.0
  0
LINE
  5
A8
330
1F
100
AcDbEntity
  8
0
  6
Continuous
 62
     7
370
    25
100
AcDbLine
 10
81.1807140607
 20
159.7384285714
 30
0.0
 11
88.1807140607
 21
159.7384285714
 31
0.0
  0
LINE
  5
A9
330
1F
100
AcDbEntity
  8
0
  6
Continuous
 62
     7
370
    25
100
AcDbLine
 10
74.1807140607
 20
159.7384285714
 30
0.0
 11
81.1807140607
 21
159.7384285714
 31
0.0
  0
LINE
  5
AA
330
1F
100
AcDbEntity
  8
0
  6
Continuous
 62
     7
370
    25
100
AcDbLine
 10
201.1807140607
 20
159.7384285714
 30
0.0
 11
194.1807140607
 21
159.7384285714
 31
0.0
  0
LINE
  5
AB
330
1F
100
AcDbEntity
  8
0
  6
Continuous
 62
     7
370
    25
100
AcDbLine
 10
208.1807140607
 20
159.7384285714
 30
0.0
 11
201.1807140607
 21
159.7384285714
 31
0.0
  0
LINE
  5
AC
330
1F
100
AcDbEntity
  8
0
  6
Continuous
 62
     7
370
    25
100
AcDbLine
 10
329.6268837492
 20
159.7384285714
 30
0.0
 11
329.6268837492
 21
144.387362712
 31
0.0
  0
LINE
  5
AD
330
1F
100
AcDbEntity
  8
0
  6
Continuous
 62
     7
370
    25
100
AcDbLine
 10
343.6268837492
 20
144.3850120011
 30
0.0
 11
343.6268837492
 21
159.7384285714
 31
0.0
  0
LINE
  5
AE
330
1F
100
AcDbEntity
  8
0
  6
Continuous
 62
     7
370
    25
100
AcDbLine
 10
320.6268837492
 20
192.7384285714
 30
0.0
 11
320.6268837492
 21
142.8810415332
 31
0.0
  0
LINE
  5
AF
330
1F
100
AcDbEntity
  8
0
  6
Continuous
 62
     7
370
    25
100
AcDbLine
 10
352.6268837492
 20
142.871630477
 30
0.0
 11
352.6268837492
 21
192.7384285714
 31
0.0
  0
LINE
  5
B0
330
1F
100
AcDbEntity
  8
0
  6
Continuous
 62
     7
370
    25
100
AcDbLine
 10
405.541686223
 20
84.2384285714
 30
0.0
 11
420.541686223
 21
84.2384285714
 31
0.0
  0
LINE
  5
B1
330
1F
100
AcDbEntity
  8
0
  6
Continuous
 62
     7
370
    25
100
AcDbLine
 10
420.541686223
 20
84.2384285714
 30
0.0
 11
420.541686223
 21
77.2384285714
 31
0.0
  0
LINE
  5
B2
330
1F
100
AcDbEntity
  8
0
  6
Continuous
 62
     7
370
    25
100
AcDbLine
 10
420.541686223
 20
77.2384285714
 30
0.0
 11
399.094875553
 21
77.2384285714
 31
0.0
  0
ARC
  5
B3
330
1F
100
AcDbEntity
  8
0
  6
Continuous
 62
     7
370
    25
100
AcDbCircle
 10
336.6268837492
 20
75.2384285714
 30
0.0
 40
62.49999999999998
100
AcDbArc
 50
1.833778
 51
358.166222
  0
LINE
  5
B4
330
1F
100
AcDbEntity
  8
0
  6
Continuous
 62
     7
370
    25
100
AcDbLine
 10
399.094875553
 20
73.2384285714
 30
0.0
 11
420.541686223
 21
73.2384285714
 31
0.0
  0
LINE
  5
B5
330
1F
100
AcDbEntity
  8
0
  6
Continuous
 62
     7
370
    25
100
AcDbLine
 10
420.541686223
 20
73.2384285714
 30
0.0
 11
420.541686223
 21
66.2384285714
 31
0.0
  0
LINE
  5
B6
330
1F
100
AcDbEntity
  8
0
  6
Continuous
 62
     7
370
    25
100
AcDbLine
 10
420.541686223
 20
66.2384285714
 30
0.0
 11
405.541686223
 21
66.2384285714
 31
0.0
  0
ARC
  5
B7
330
1F
100
AcDbEntity
  8
0
  6
Continuous
 62
     7
370
    25
100
AcDbCircle
 10
336.6268837492
 20
75.2384285714
 30
0.0
 40
69.49999999999993
100
AcDbArc
 50
7.4404923436
 51
352.5595076564
  0
LINE
  5
B8
330
1F
100
AcDbEntity
  8
0
  6
Continuous
 62
     7
370
    25
100
AcDbLine
 10
329.6268837492
 20
159.7384285714
 30
0.0
 11
343.6268837492
 21
159.7384285714
 31
0.0
  0
LINE
  5
B9
330
1F
100
AcDbEntity
  8
0
  6
Continuous
 62
     7
370
    25
100
AcDbLine
 10
320.6268837492
 20
192.7384285714
 30
0.0
 11
352.6268837492
 21
192.7384285714
 31
0.0
  0
LINE
  5
BA
330
1F
100
AcDbEntity
  8
0
  6
Continuous
 62
     7
370
    25
100
AcDbLine
 10
71.1807140607
 20
249.8702735695
 30
0.0
 11
211.1807140607
 21
249.8702735695
 31
0.0
  0
LINE
  5
BB
330
1F
100
AcDbEntity
  8
0
  6
Continuous
 62
     7
370
    25
100
AcDbLine
 10
211.1807140607
 20
388.2850760433
 30
0.0
 11
71.1807140607
 21
388.2850760433
 31
0.0
  0
LINE
  5
BC
330
1F
100
AcDbEntity
  8
0
  6
Continuous
 62
     7
370
    25
100
AcDbLine
 10
211.1807140607
 20
388.2850760433
 30
0.0
 11
211.1807140607
 21
249.8702735695
 31
0.0
  0
LINE
  5
BD
330
1F
100
AcDbEntity
  8
0
  6
Continuous
 62
     7
370
    25
100
AcDbLine
 10
71.1807140607
 20
388.2850760433
 30
0.0
 11
71.1807140607
 21
249.8702735695
 31
0.0
  0
LINE
  5
BE
330
1F
100
AcDbEntity
  8
0
  6
Continuous
 62
     7
370
    25
100
AcDbLine
 10
111.1807140607
 20
388.1470865227
 30
0.0
 11
171.1807140607
 21
388.1470865227
 31
0.0
  0
LINE
  5
BF
330
1F
100
AcDbEntity
  8
0
  6
Continuous
 62
     7
370
    25
100
AcDbLine
 10
111.1807140607
 20
250.5934606163
 30
0.0
 11
111.1807140607
 21
388.1470865227
 31
0.0
  0
LINE
  5
C0
330
1F
100
AcDbEntity
  8
0
  6
Continuous
 62
     7
370
    25
100
AcDbLine
 10
171.1807140607
 20
250.5934606163
 30
0.0
 11
111.1807140607
 21
250.5934606163
 31
0.0
  0
LINE
  5
C1
330
1F
100
AcDbEntity
  8
0
  6
Continuous
 62
     7
370
    25
100
AcDbLine
 10
171.1807140607
 20
388.1470865227
 30
0.0
 11
171.1807140607
 21
250.5934606163
 31
0.0
  0
SPLINE
  5
C2
330
1F
100
AcDbEntity
  8
0
  6
Continuous
 62
     7
370
    25
100
AcDbSpline
210
0.0
220
0.0
230
1.0
 70
    11
 71
     3
 72
   103
 73
    99
 74
     0
 42
0.00000001
 43
0.00000001
 40
0.0
 40
0.0
 40
0.0
 40
0.0
 40
0.03125
 40
0.03125
 40
0.046875
 40
0.046875
 40
0.0625
 40
0.0625
 40
0.0937499999999999
 40
0.0937499999999999
 40
0.1093749999999999
 40
0.1093749999999999
 40
0.1249999999999999
 40
0.1249999999999999
 40
0.1562499999999999
 40
0.1562499999999999
 40
0.171875
 40
0.171875
 40
0.1875
 40
0.1875
 40
0.203125
 40
0.203125
 40
0.21875
 40
0.21875
 40
0.2500000000000001
 40
0.2500000000000001
 40
0.2656250000000002
 40
0.2656250000000002
 40
0.2812500000000002
 40
0.2812500000000002
 40
0.3125000000000002
 40
0.3125000000000002
 40
0.3281250000000003
 40
0.3281250000000003
 40
0.3437500000000003
 40
0.3437500000000003
 40
0.3593750000000004
 40
0.3593750000000004
 40
0.3750000000000004
 40
0.3750000000000004
 40
0.4062500000000004
 40
0.4062500000000004
 40
0.4218750000000004
 40
0.4218750000000004
 40
0.4375000000000004
 40
0.4375000000000004
 40
0.4687500000000003
 40
0.4687500000000003
 40
0.4843750000000003
 40
0.4843750000000003
 40
0.5000000000000002
 40
0.5000000000000002
 40
0.5312500000000002
 40
0.5312500000000002
 40
0.5468750000000002
 40
0.5468750000000002
 40
0.5625000000000002
 40
0.5625000000000002
 40
0.5781250000000002
 40
0.5781250000000002
 40
0.5937500000000001
 40
0.5937500000000001
 40
0.6250000000000001
 40
0.6250000000000001
 40
0.6406250000000001
 40
0.6406250000000001
 40
0.6562500000000001
 40
0.6562500000000001
 40
0.6875000000000001
 40
0.6875000000000001
 40
0.7031250000000001
 40
0.7031250000000001
 40
0.7187500000000001
 40
0.7343750000000001
 40
0.7343750000000001
 40
0.75
 40
0.75
 40
0.78125
 40
0.78125
 40
0.796875
 40
0.796875
 40
0.8125
 40
0.8125
 40
0.84375
 40
0.84375
 40
0.859375
 40
0.859375
 40
0.875
 40
0.875
 40
0.90625
 40
0.90625
 40
0.9375
 40
0.9375
 40
0.953125
 40
0.953125
 40
0.96875
 40
0.96875
 40
1.0
 40
1.0
 40
1.0
 40
1.0
 10
141.1807140607425
 20
306.3702735694728
 30
0.0
 10
142.0420831322266
 20
306.3702735694728
 30
0.0
 10
142.8885739892696
 20
306.4550332862062
 30
0.0
 10
144.1370203980239
 20
306.7037702193905
 30
0.0
 10
144.5495951624554
 20
306.8071015256522
 30
0.0
 10
145.3674629338964
 20
307.0554944178494
 30
0.0
 10
145.7733273046613
 20
307.2010813997548
 30
0.0
 10
146.9531365885665
 20
307.6910408871752
 30
0.0
 10
147.6988539067878
 20
308.0904586063136
 30
0.0
 10
148.7573258151266
 20
308.7979016744222
 30
0.0
 10
149.1016885486715
 20
309.0532837614086
 30
0.0
 10
149.7612564192838
 20
309.594977749325
 30
0.0
 10
150.0753312631501
 20
309.8800439533428
 30
0.0
 10
150.9719025296409
 20
310.7768271279418
 30
0.0
 10
151.5091992614617
 20
311.429713439741
 30
0.0
 10
152.2220609773874
 20
312.4948693126209
 30
0.0
 10
152.4425807812487
 20
312.8625423479801
 30
0.0
 10
152.843149864971
 20
313.6111244314591
 30
0.0
 10
153.0243417190602
 20
313.9936987741533
 30
0.0
 10
153.3489300924774
 20
314.775320768457
 30
0.0
 10
153.4923273308453
 20
315.1743679890815
 30
0.0
 10
153.7405940033145
 20
315.9893179678263
 30
0.0
 10
153.8458789039317
 20
316.4077020464557
 30
0.0
 10
154.0970597663012
 20
317.6670602090597
 30
0.0
 10
154.1802041871065
 20
318.5121011891205
 30
0.0
 10
154.1809655244709
 20
319.7877214402121
 30
0.0
 10
154.1604124318348
 20
320.2142805341726
 30
0.0
 10
154.0762631206227
 20
321.0701947456516
 30
0.0
 10
154.0130801050175
 20
321.4942835998252
 30
0.0
 10
153.7635546176409
 20
322.7461099299729
 30
0.0
 10
153.517420035741
 20
323.5576404135327
 30
0.0
 10
153.0274338966559
 20
324.7403124873439
 30
0.0
 10
152.8430343288701
 20
325.1297430479253
 30
0.0
 10
152.4412738512005
 20
325.8803423797947
 30
0.0
 10
152.2231983899854
 20
326.2435740997712
 30
0.0
 10
151.7533077140181
 20
326.9464852734903
 30
0.0
 10
151.5014917384676
 20
327.2861639662584
 30
0.0
 10
150.963751631885
 20
327.9418515180518
 30
0.0
 10
150.6764993316252
 20
328.2591638591662
 30
0.0
 10
149.7708972416064
 20
329.1650674361589
 30
0.0
 10
149.1171325610298
 20
329.7012273827548
 30
0.0
 10
148.0630055897702
 20
330.407161701344
 30
0.0
 10
147.6992928154791
 20
330.6259653746946
 30
0.0
 10
146.9463376009079
 20
331.0296068346699
 30
0.0
 10
146.5578869636763
 20
331.213701459957
 30
0.0
 10
145.3798502699343
 20
331.7027650289155
 30
0.0
 10
144.5695818327675
 20
331.9496871511581
 30
0.0
 10
143.3163316478621
 20
332.2007316762758
 30
0.0
 10
142.8897859700366
 20
332.2645690992399
 30
0.0
 10
142.0365675656462
 20
332.3491525186831
 30
0.0
 10
141.6108664353877
 20
332.370098122015
 30
0.0
 10
140.336415617573
 20
332.3706211797495
 30
0.0
 10
139.4902939353761
 20
332.2884893314113
 30
0.0
 10
138.2265414000045
 20
332.0374484146626
 30
0.0
 10
137.810401382018
 20
331.9329897188087
 30
0.0
 10
136.9965777552208
 20
331.6858672611294
 30
0.0
 10
136.5975027709773
 20
331.5429318400127
 30
0.0
 10
135.8147875697036
 20
331.2187446940838
 30
0.0
 10
135.4311471520068
 20
331.0374937460211
 30
0.0
 10
134.6795076806804
 20
330.6359675955826
 30
0.0
 10
134.3103171232316
 20
330.4146669460168
 30
0.0
 10
133.2492640838967
 20
329.7054570610233
 30
0.0
 10
132.5962338168667
 20
329.169497866424
 30
0.0
 10
131.6966253952727
 20
328.271486220307
 30
0.0
 10
131.4092559700806
 20
327.9552194988083
 30
0.0
 10
130.8664460642808
 20
327.2948281641704
 30
0.0
 10
130.613326269646
 20
326.9537679607949
 30
0.0
 10
129.9071048124453
 20
325.8988279392565
 30
0.0
 10
129.5066189685646
 20
325.1534972803055
 30
0.0
 10
129.0141996571171
 20
323.9701073103883
 30
0.0
 10
128.8685354845614
 20
323.5645189849556
 30
0.0
 10
128.6203842233117
 20
322.7495560779375
 30
0.0
 10
128.413367216304
 20
321.9262953771246
 30
0.0
 10
128.2874711950477
 20
321.0866255740845
 30
0.0
 10
128.2027495615373
 20
320.2386129356727
 30
0.0
 10
128.1810066827474
 20
319.8081816587828
 30
0.0
 10
128.1801377011476
 20
318.5207819855976
 30
0.0
 10
128.2637320618821
 20
317.6751429017878
 30
0.0
 10
128.511619723328
 20
316.4250194794927
 30
0.0
 10
128.6148138878129
 20
316.0113890530278
 30
0.0
 10
128.8635314930012
 20
315.1904451108186
 30
0.0
 10
129.0082264415145
 20
314.7864817754815
 30
0.0
 10
129.4962649635354
 20
313.6086715788404
 30
0.0
 10
129.8949279446464
 20
312.8621710925501
 30
0.0
 10
130.6035685553744
 20
311.8002613841874
 30
0.0
 10
130.8596634085061
 20
311.454665004632
 30
0.0
 10
131.3992049088096
 20
310.7968830949602
 30
0.0
 10
131.6834481133476
 20
310.4831852431608
 30
0.0
 10
132.5788111289693
 20
309.5865695912635
 30
0.0
 10
133.2335848270526
 20
309.046700156609
 30
0.0
 10
134.6561641013176
 20
308.0936038973255
 30
0.0
 10
135.4031047370964
 20
307.6939635956944
 30
0.0
 10
136.5756941346141
 20
307.2058567110669
 30
0.0
 10
136.975316969735
 20
307.0618532232965
 30
0.0
 10
137.7926367224414
 20
306.8122678336518
 30
0.0
 10
138.2112015252228
 20
306.7067462877271
 30
0.0
 10
139.4693746594249
 20
306.4550488672078
 30
0.0
 10
140.3193449892584
 20
306.3702735694728
 30
0.0
 10
141.1807140607425
 20
306.3702735694728
 30
0.0
  0
LINE
  5
C3
330
1F
100
AcDbEntity
  8
0
  6
Continuous
 62
     7
370
    25
100
AcDbLine
 10
171.1807140607
 20
381.0650869657
 30
0.0
 11
111.1807140607
 21
381.0650869657
 31
0.0
  0
LINE
  5
C4
330
1F
100
AcDbEntity
  8
0
  6
Continuous
 62
     7
370
    25
100
AcDbLine
 10
111.1807140607
 20
257.6754601732
 30
0.0
 11
171.1807140607
 21
257.6754601732
 31
0.0
  0
LINE
  5
C5
330
1F
100
AcDbEntity
  8
0
  6
Continuous
 62
     7
370
    25
100
AcDbLine
 10
211.1807140607
 20
403.2850760433
 30
0.0
 11
71.1807140607
 21
403.2850760433
 31
0.0
  0
LINE
  5
C6
330
1F
100
AcDbEntity
  8
0
  6
Continuous
 62
     7
370
    25
100
AcDbLine
 10
71.1807140607
 20
403.2850760433
 30
0.0
 11
71.1807140607
 21
388.2850760433
 31
0.0
  0
LINE
  5
C7
330
1F
100
AcDbEntity
  8
0
  6
Continuous
 62
     7
370
    25
100
AcDbLine
 10
211.1807140607
 20
403.2850760433
 30
0.0
 11
211.1807140607
 21
388.2850760433
 31
0.0
  0
INSERT
  5
D3
330
1F
100
AcDbEntity
  8
FORMAT
100
AcDbBlockReference
  2
SW_CENTERMARKSYMBOL_0
 10
141.1807140607
 20
319.3702735695
 30
0.0
  0
LINE
  5
D4
330
1F
100
AcDbEntity
  8
0
  6
Continuous
 62
     7
370
    25
100
AcDbLine
 10
-58.2437626826
 20
159.7384285714
 30
0.0
 11
-58.2437626826
 21
144.3850120011
 31
0.0
  0
LINE
  5
D5
330
1F
100
AcDbEntity
  8
0
  6
Continuous
 62
     7
370
    25
100
AcDbLine
 10
-44.2437626826
 20
144.387362712
 30
0.0
 11
-44.2437626826
 21
159.7384285714
 31
0.0
  0
LINE
  5
D6
330
1F
100
AcDbEntity
  8
0
  6
Continuous
 62
     7
370
    25
100
AcDbLine
 10
-67.2437626826
 20
192.7384285714
 30
0.0
 11
-67.2437626826
 21
142.871630477
 31
0.0
  0
LINE
  5
D7
330
1F
100
AcDbEntity
  8
0
  6
Continuous
 62
     7
370
    25
100
AcDbLine
 10
-35.2437626826
 20
142.8810415332
 30
0.0
 11
-35.2437626826
 21
192.7384285714
 31
0.0
  0
LINE
  5
D8
330
1F
100
AcDbEntity
  8
0
  6
Continuous
 62
     7
370
    25
100
AcDbLine
 10
-135.1585651564
 20
66.2384285714
 30
0.0
 11
-120.1585651564
 21
66.2384285714
 31
0.0
  0
LINE
  5
D9
330
1F
100
AcDbEntity
  8
0
  6
Continuous
 62
     7
370
    25
100
AcDbLine
 10
-135.1585651564
 20
73.2384285714
 30
0.0
 11
-135.1585651564
 21
66.2384285714
 31
0.0
  0
LINE
  5
DA
330
1F
100
AcDbEntity
  8
0
  6
Continuous
 62
     7
370
    25
100
AcDbLine
 10
-113.7117544864
 20
73.2384285714
 30
0.0
 11
-135.1585651564
 21
73.2384285714
 31
0.0
  0
ARC
  5
DB
330
1F
100
AcDbEntity
  8
0
  6
Continuous
 62
     7
370
    25
100
AcDbCircle
 10
-51.2437626826
 20
75.2384285714
 30
0.0
 40
62.49999999999999
100
AcDbArc
 50
181.833778
 51
178.166222
  0
LINE
  5
DC
330
1F
100
AcDbEntity
  8
0
  6
Continuous
 62
     7
370
    25
100
AcDbLine
 10
-135.1585651564
 20
77.2384285714
 30
0.0
 11
-113.7117544864
 21
77.2384285714
 31
0.0
  0
LINE
  5
DD
330
1F
100
AcDbEntity
  8
0
  6
Continuous
 62
     7
370
    25
100
AcDbLine
 10
-135.1585651564
 20
84.2384285714
 30
0.0
 11
-135.1585651564
 21
77.2384285714
 31
0.0
  0
LINE
  5
DE
330
1F
100
AcDbEntity
  8
0
  6
Continuous
 62
     7
370
    25
100
AcDbLine
 10
-120.1585651564
 20
84.2384285714
 30
0.0
 11
-135.1585651564
 21
84.2384285714
 31
0.0
  0
ARC
  5
DF
330
1F
100
AcDbEntity
  8
0
  6
Continuous
 62
     7
370
    25
100
AcDbCircle
 10
-51.2437626826
 20
75.2384285714
 30
0.0
 40
69.5
100
AcDbArc
 50
187.4404923436
 51
172.5595076564
  0
LINE
  5
E0
330
1F
100
AcDbEntity
  8
0
  6
Continuous
 62
     7
370
    25
100
AcDbLine
 10
-44.2437626826
 20
159.7384285714
 30
0.0
 11
-58.2437626826
 21
159.7384285714
 31
0.0
  0
LINE
  5
E1
330
1F
100
AcDbEntity
  8
0
  6
Continuous
 62
     7
370
    25
100
AcDbLine
 10
-67.2437626826
 20
192.7384285714
 30
0.0
 11
-35.2437626826
 21
192.7384285714
 31
0.0
  0
LINE
  5
E2
330
1F
100
AcDbEntity
  8
0
  6
Continuous
 62
     7
370
    25
100
AcDbLine
 10
211.1807140607
 20
-44.167349231
 30
0.0
 11
71.1807140607
 21
-44.167349231
 31
0.0
  0
CIRCLE
  5
E3
330
1F
100
AcDbEntity
  8
0
  6
Continuous
 62
     7
370
    25
100
AcDbCircle
 10
141.1807140607
 20
-113.667349231
 30
0.0
 40
13.0
  0
CIRCLE
  5
E4
330
1F
100
AcDbEntity
  8
0
  6
Continuous
 62
     7
370
    25
100
AcDbCircle
 10
141.1807140607
 20
-113.667349231
 30
0.0
 40
16.0
  0
CIRCLE
  5
E5
330
1F
100
AcDbEntity
  8
0
  6
Continuous
 62
     7
370
    25
100
AcDbCircle
 10
81.1807140607
 20
-113.667349231
 30
0.0
 40
4.600000000000009
  0
CIRCLE
  5
E6
330
1F
100
AcDbEntity
  8
0
  6
Continuous
 62
     7
370
    25
100
AcDbCircle
 10
81.1807140607
 20
-113.667349231
 30
0.0
 40
7.0
  0
CIRCLE
  5
E7
330
1F
100
AcDbEntity
  8
0
  6
Continuous
 62
     7
370
    25
100
AcDbCircle
 10
201.1807140607
 20
-113.667349231
 30
0.0
 40
4.600000000000009
  0
CIRCLE
  5
E8
330
1F
100
AcDbEntity
  8
0
  6
Continuous
 62
     7
370
    25
100
AcDbCircle
 10
201.1807140607
 20
-113.667349231
 30
0.0
 40
7.0
  0
CIRCLE
  5
E9
330
1F
100
AcDbEntity
  8
0
  6
Continuous
 62
     7
370
    25
100
AcDbCircle
 10
81.1807140607
 20
-113.667349231
 30
0.0
 40
1.5
  0
CIRCLE
  5
EA
330
1F
100
AcDbEntity
  8
0
  6
Continuous
 62
     7
370
    25
100
AcDbCircle
 10
81.1807140607
 20
-113.667349231
 30
0.0
 40
2.0
  0
CIRCLE
  5
EB
330
1F
100
AcDbEntity
  8
0
  6
Continuous
 62
     7
370
    25
100
AcDbCircle
 10
201.1807140607
 20
-113.667349231
 30
0.0
 40
1.5
  0
CIRCLE
  5
EC
330
1F
100
AcDbEntity
  8
0
  6
Continuous
 62
     7
370
    25
100
AcDbCircle
 10
201.1807140607
 20
-113.667349231
 30
0.0
 40
2.0
  0
LINE
  5
ED
330
1F
100
AcDbEntity
  8
0
  6
Continuous
 62
     7
370
    25
100
AcDbLine
 10
211.1807140607
 20
-44.167349231
 30
0.0
 11
211.1807140607
 21
-182.5821517047
 31
0.0
  0
LINE
  5
EE
330
1F
100
AcDbEntity
  8
0
  6
Continuous
 62
     7
370
    25
100
AcDbLine
 10
211.1807140607
 20
-182.5821517047
 30
0.0
 11
71.1807140607
 21
-182.5821517047
 31
0.0
  0
LINE
  5
EF
330
1F
100
AcDbEntity
  8
0
  6
Continuous
 62
     7
370
    25
100
AcDbLine
 10
71.1807140607
 20
-44.167349231
 30
0.0
 11
71.1807140607
 21
-182.5821517047
 31
0.0
  0
LINE
  5
F0
330
1F
100
AcDbEntity
  8
0
  6
Continuous
 62
     7
370
    25
100
AcDbLine
 10
211.1807140607
 20
-197.5821517047
 30
0.0
 11
71.1807140607
 21
-197.5821517047
 31
0.0
  0
LINE
  5
F1
330
1F
100
AcDbEntity
  8
0
  6
Continuous
 62
     7
370
    25
100
AcDbLine
 10
71.1807140607
 20
-182.5821517047
 30
0.0
 11
71.1807140607
 21
-197.5821517047
 31
0.0
  0
LINE
  5
F2
330
1F
100
AcDbEntity
  8
0
  6
Continuous
 62
     7
370
    25
100
AcDbLine
 10
211.1807140607
 20
-182.5821517047
 30
0.0
 11
211.1807140607
 21
-197.5821517047
 31
0.0
  0
INSERT
  5
FE
330
1F
100
AcDbEntity
  8
FORMAT
100
AcDbBlockReference
  2
SW_CENTERMARKSYMBOL_1
 10
141.1807140607
 20
-113.667349231
 30
0.0
  0
INSERT
  5
10A
330
1F
100
AcDbEntity
  8
FORMAT
100
AcDbBlockReference
  2
SW_CENTERMARKSYMBOL_2
 10
81.1807140607
 20
-113.667349231
 30
0.0
  0
INSERT
  5
116
330
1F
100
AcDbEntity
  8
FORMAT
100
AcDbBlockReference
  2
SW_CENTERMARKSYMBOL_3
 10
201.1807140607
 20
-113.667349231
 30
0.0
  0
LINE
  5
117
330
1F
100
AcDbEntity
  8
0
  6
Continuous
 62
     7
370
    25
100
AcDbLine
 10
425.0199286645
 20
-167.1926222227
 30
0.0
 11
453.304199912
 21
-150.8644599862
 31
0.0
  0
LINE
  5
118
330
1F
100
AcDbEntity
  8
0
  6
Continuous
 62
     7
370
    25
100
AcDbLine
 10
354.3092505459
 20
-208.0130278138
 30
0.0
 11
382.5935217933
 21
-191.6848655774
 31
0.0
  0
LINE
  5
119
330
1F
100
AcDbEntity
  8
0
  6
Continuous
 62
     7
370
    25
100
AcDbLine
 10
383.8098479938
 20
-30.4836681153
 30
0.0
 11
284.8148986277
 21
-87.6322359429
 31
0.0
  0
LINE
  5
11A
330
1F
100
AcDbEntity
  8
0
  6
Continuous
 62
     7
370
    25
100
AcDbLine
 10
404.485956141
 20
-25.7584060055
 30
0.0
 11
404.485956141
 21
-28.1773606407
 31
0.0
  0
LINE
  5
11B
330
1F
100
AcDbEntity
  8
0
  6
Continuous
 62
     7
370
    25
100
AcDbLine
 10
418.485956141
 20
-33.883510389
 30
0.0
 11
418.485956141
 21
-25.7584060055
 31
0.0
  0
LINE
  5
11C
330
1F
100
AcDbEntity
  8
0
  6
Continuous
 62
     7
370
    25
100
AcDbLine
 10
353.0595492698
 20
-23.304802568
 30
0.0
 11
353.0595492698
 21
-48.2354377116
 31
0.0
  0
LINE
  5
11D
330
1F
100
AcDbEntity
  8
0
  6
Continuous
 62
     7
370
    25
100
AcDbLine
 10
385.0595492698
 20
-29.8123457322
 30
0.0
 11
385.0595492698
 21
-23.304802568
 31
0.0
  0
LINE
  5
11E
330
1F
100
AcDbEntity
  8
0
  6
Continuous
 62
     7
370
    25
100
AcDbLine
 10
359.2202980818
 20
-63.7685686369
 30
0.0
 11
369.8268997995
 21
-69.8916294756
 31
0.0
  0
LINE
  5
11F
330
1F
100
AcDbEntity
  8
0
  6
Continuous
 62
     7
370
    25
100
AcDbLine
 10
359.2202980818
 20
-58.0527829537
 30
0.0
 11
359.2202980818
 21
-63.7685686369
 31
0.0
  0
LINE
  5
120
330
1F
100
AcDbEntity
  8
0
  6
Continuous
 62
     7
370
    25
100
AcDbLine
 10
374.3854833413
 20
-66.8074580556
 30
0.0
 11
359.2202980818
 21
-58.0527829537
 31
0.0
  0
LWPOLYLINE
  5
121
330
1F
100
AcDbEntity
  8
0
  6
Continuous
 62
     7
370
    25
100
AcDbPolyline
 90
      113
 70
   128
 43
0.0
 10
374.3854833413
 20
-63.541294808
 10
374.532053625
 20
-60.7975093469
 10
374.8143354866
 20
-58.1458214921
 10
375.2314587628
 20
-55.5944053489
 10
375.7821376274
 20
-53.1511259244
 10
376.4646745553
 20
-50.8235148832
 10
377.2769655548
 20
-48.61874733
 10
378.2165066541
 20
-46.5436196914
 10
379.2804016193
 20
-44.6045287654
 10
380.4653708829
 20
-42.8074520029
 10
381.7677616531
 20
-41.1579290809
 10
383.1835591742
 20
-39.6610448265
 10
384.708399102
 20
-38.3214135421
 10
386.3375809579
 20
-37.1431647812
 10
388.0660826185
 20
-36.129930619
 10
389.8885757964
 20
-35.2848344558
 10
391.7994424657
 20
-34.6104813889
 10
393.7927921799
 20
-34.1089501823
 10
395.86248023
 20
-33.7817868583
 10
398.002126586
 20
-33.6299999322
 10
400.205135564
 20
-33.6540573031
 10
402.4647161584
 20
-33.8538848115
 10
404.7739029755
 20
-34.2288664682
 10
407.1255777054
 20
-34.7778463532
 10
409.5124910645
 20
-35.4991321784
 10
411.9272851428
 20
-36.3905005048
 10
414.3625160846
 20
-37.4492035962
 10
416.8106770359
 20
-38.6719778896
 10
419.2642212843
 20
-40.0550540553
 10
421.715585523
 20
-41.5941686163
 10
424.157213165
 20
-43.2845770908
 10
426.5815776378
 20
-45.1210686179
 10
428.9812055842
 20
-47.0979820202
 10
431.3486998998
 20
-49.2092232554
 10
433.6767625358
 20
-51.4482842013
 10
435.9582169954
 20
-53.8082627183
 10
438.1860304565
 20
-56.2818839258
 10
440.3533354511
 20
-58.8615226273
 10
442.4534510346
 20
-61.5392268168
 10
444.479903381
 20
-64.3067421908
 10
446.4264457389
 20
-67.1555375937
 10
448.2870776878
 20
-70.0768313154
 10
450.056063635
 20
-73.0616181623
 10
451.7279504962
 20
-76.1006972168
 10
453.2975845053
 20
-79.1847001995
 10
454.760127101
 20
-82.3041203486
 10
456.1110698429
 20
-85.449341725
 10
457.3462483085
 20
-88.6106688547
 10
458.461854931
 20
-91.778356616
 10
459.4544507363
 20
-94.9426402799
 10
460.3209759438
 20
-98.093765611
 10
461.058759399
 20
-101.2220189355
 10
461.6655268072
 20
-104.3177570854
 10
462.1394077442
 20
-107.3714371237
 10
462.4789414226
 20
-110.3736457622
 10
462.6830811943
 20
-113.3151283787
 10
462.7511977771
 20
-116.1868175452
 10
462.6830811943
 20
-118.9798609793
 10
462.4789414226
 20
-121.6856488323
 10
462.1394077442
 20
-124.2958402301
 10
461.6655268072
 20
-126.8023889845
 10
461.058759399
 20
-129.1975683967
 10
460.3209759438
 20
-131.4739950755
 10
459.4544507363
 20
-133.6246516975
 10
458.461854931
 20
-135.6429086386
 10
457.3462483085
 20
-137.5225444105
 10
456.1110698429
 20
-139.2577648393
 10
454.760127101
 20
-140.8432209265
 10
453.2975845053
 20
-142.2740253377
 10
451.7279504962
 20
-143.5457674687
 10
450.056063635
 20
-144.6545270412
 10
448.2870776878
 20
-145.5968861878
 10
446.4264457389
 20
-146.3699399879
 10
444.479903381
 20
-146.9713054221
 10
442.4534510346
 20
-147.3991287187
 10
440.3533354511
 20
-147.6520910676
 10
438.1860304565
 20
-147.7294126858
 10
435.9582169954
 20
-147.6308552213
 10
433.6767625358
 20
-147.3567224879
 10
431.3486998998
 20
-146.9078595284
 10
428.9812055842
 20
-146.2856500099
 10
426.5815776378
 20
-145.4920119582
 10
424.157213165
 20
-144.5293918457
 10
421.7155855229
 20
-143.4007570498
 10
419.2642212843
 20
-142.1095867051
 10
416.8106770359
 20
-140.6598609795
 10
414.3625160846
 20
-139.0560488041
 10
411.9272851428
 20
-137.3030940979
 10
409.5124910645
 20
-135.4064005271
 10
407.1255777054
 20
-133.3718148482
 10
404.7739029755
 20
-131.2056088844
 10
402.4647161584
 20
-128.9144601923
 10
400.205135564
 20
-126.5054314775
 10
398.002126586
 20
-123.9859488231
 10
395.86248023
 20
-121.363778798
 10
393.7927921799
 20
-118.6470045157
 10
391.7994424657
 20
-115.8440007172
 10
389.8885757964
 20
-112.9634079551
 10
388.0660826185
 20
-110.014105958
 10
386.3375809579
 20
-107.0051862579
 10
384.708399102
 20
-103.9459241646
 10
383.1835591742
 20
-100.8457501737
 10
381.7677616531
 20
-97.7142208959
 10
380.4653708829
 20
-94.560989598
 10
379.2804016193
 20
-91.3957764453
 10
378.2165066541
 20
-88.2283385386
 10
377.2769655548
 20
-85.0684398368
 10
376.4646745553
 20
-81.9258210582
 10
375.7821376274
 20
-78.810169654
 10
375.2314587628
 20
-75.7310899458
 10
374.8143354866
 20
-72.698073519
 10
374.532053625
 20
-69.7204699641
 10
374.3854833413
 20
-66.8074580556
  0
LINE
  5
122
330
1F
100
AcDbEntity
  8
0
  6
Continuous
 62
     7
370
    25
100
AcDbLine
 10
359.2202980818
 20
-54.7866197062
 30
0.0
 11
374.3854833413
 21
-63.541294808
 31
0.0
  0
LINE
  5
123
330
1F
100
AcDbEntity
  8
0
  6
Continuous
 62
     7
370
    25
100
AcDbLine
 10
359.2202980818
 20
-49.070834023
 30
0.0
 11
359.2202980818
 21
-54.7866197062
 31
0.0
  0
LINE
  5
124
330
1F
100
AcDbEntity
  8
0
  6
Continuous
 62
     7
370
    25
100
AcDbLine
 10
369.8268997995
 20
-55.1938948617
 30
0.0
 11
359.2202980818
 21
-49.070834023
 31
0.0
  0
LWPOLYLINE
  5
125
330
1F
100
AcDbEntity
  8
0
  6
Continuous
 62
     7
370
    25
100
AcDbPolyline
 90
      115
 70
   128
 43
0.0
 10
369.8268997995
 20
-69.8916294756
 10
370.2310048133
 20
-73.0865278809
 10
370.7699945582
 20
-76.3305155786
 10
371.4423646379
 20
-79.614538142
 10
372.2462383728
 20
-82.929429401
 10
373.1793720379
 20
-86.265937027
 10
374.2391611257
 20
-89.6147483568
 10
375.4226476155
 20
-92.9665163861
 10
376.7265282296
 20
-96.3118858577
 10
378.1471636534
 20
-99.6415193741
 10
379.6805886933
 20
-102.9461234586
 10
381.3225233438
 20
-106.2164744955
 10
383.0683847338
 20
-109.4434444741
 10
384.9132999182
 20
-112.6180264663
 10
386.8521194786
 20
-115.7313597663
 10
388.8794318963
 20
-118.774754622
 10
390.9895786567
 20
-121.7397164895
 10
393.1766700426
 20
-124.6179697421
 10
395.4346015737
 20
-127.4014807694
 10
397.7570710449
 20
-130.0824803998
 10
400.1375961165
 20
-132.6534855853
 10
402.5695324075
 20
-135.1073202882
 10
405.046092041
 20
-137.4371355099
 10
407.5603625898
 20
-139.6364284076
 10
410.1053263704
 20
-141.699060445
 10
412.6738800304
 20
-143.6192745253
 10
415.2588543743
 20
-145.3917110602
 10
417.8530343744
 20
-147.0114229297
 10
420.4491793086
 20
-148.4738892896
 10
423.0400429705
 20
-149.77502819
 10
425.6183938944
 20
-150.9112079691
 10
428.1770355395
 20
-151.8792573887
 10
430.7088263763
 20
-152.6764744867
 10
433.2066998197
 20
-153.3006341176
 10
435.6636839528
 20
-153.7499941639
 10
438.0729209865
 20
-154.0233003985
 10
440.4276864008
 20
-154.1197899851
 10
442.7214077135
 20
-154.0391936077
 10
444.947682825
 20
-153.7817362221
 10
447.1002978877
 20
-153.3481364282
 10
449.1732446495
 20
-152.739604464
 10
451.1607372239
 20
-151.9578388282
 10
453.057228239
 20
-151.0050215388
 10
454.8574243209
 20
-149.8838120431
 10
456.5563008687
 20
-148.5973397949
 10
458.1491160784
 20
-147.1491955196
 10
459.6314241784
 20
-145.5434211919
 10
460.9990878377
 20
-143.7844987544
 10
462.2482897144
 20
-141.8773376074
 10
463.3755431098
 20
-139.8272609067
 10
464.3777017009
 20
-137.6399907051
 10
465.2519683218
 20
-135.3216319823
 10
465.995902771
 20
-132.8786556041
 10
466.6074286228
 20
-130.3178802619
 10
467.0848390223
 20
-127.6464534407
 10
467.4268014497
 20
-124.8718314693
 10
467.6323614397
 20
-122.0017587087
 10
467.7009452454
 20
-119.0442459366
 10
467.6323614397
 20
-116.0075479879
 10
467.4268014497
 20
-112.9001407147
 10
467.0848390223
 20
-109.7306973287
 10
466.6074286228
 20
-106.508064193
 10
465.995902771
 20
-103.2412361311
 10
465.2519683218
 20
-99.9393313206
 10
464.3777017009
 20
-96.6115658431
 10
463.3755431098
 20
-93.2672279611
 10
462.2482897144
 20
-89.9156521932
 10
460.9990878377
 20
-86.5661932597
 10
459.6314241784
 20
-83.2281999726
 10
458.1491160784
 20
-79.9109891416
 10
456.5563008687
 20
-76.6238195699
 10
454.8574243209
 20
-73.3758662109
 10
453.057228239
 20
-70.1761945603
 10
451.1607372239
 20
-67.0337353528
 10
449.1732446495
 20
-63.9572596348
 10
447.1002978877
 20
-60.9553542838
 10
444.947682825
 20
-58.0363980408
 10
442.7214077135
 20
-55.208538124
 10
440.4276864008
 20
-52.4796674891
 10
438.0729209865
 20
-49.8574027987
 10
435.6636839528
 20
-47.3490631631
 10
433.2066998197
 20
-44.9616497118
 10
430.7088263763
 20
-42.7018260523
 10
428.1770355395
 20
-40.5758996709
 10
425.6183938944
 20
-38.5898043279
 10
423.0400429705
 20
-36.7490834953
 10
420.4491793086
 20
-35.0588748844
 10
417.8530343744
 20
-33.5238961056
 10
415.2588543743
 20
-32.1484315011
 10
412.6738800304
 20
-30.9363201865
 10
410.1053263704
 20
-29.8909453353
 10
407.5603625898
 20
-29.0152247361
 10
405.046092041
 20
-28.3116026485
 10
402.5695324075
 20
-27.7820429809
 10
400.1375961165
 20
-27.428023809
 10
397.7570710449
 20
-27.2505332503
 10
395.4346015737
 20
-27.2500667058
 10
393.1766700426
 20
-27.4266254778
 10
390.9895786567
 20
-27.7797167659
 10
388.8794318963
 20
-28.3083550424
 10
386.8521194786
 20
-29.0110648035
 10
384.9132999182
 20
-29.8858846872
 10
383.0683847338
 20
-30.9303729478
 10
381.3225233438
 20
-32.1416142715
 10
379.6805886933
 20
-33.5162279128
 10
378.1471636534
 20
-35.0503771315
 10
376.7265282296
 20
-36.7397799007
 10
375.4226476155
 20
-38.5797208593
 10
374.2391611257
 20
-40.5650644727
 10
373.1793720379
 20
-42.6902693669
 10
372.2462383728
 20
-44.9494037957
 10
371.4423646379
 20
-47.3361621963
 10
370.7699945582
 20
-49.8438827896
 10
370.2310048133
 20
-52.465566174
 10
369.8268997995
 20
-55.1938948617
  0
LINE
  5
126
330
1F
100
AcDbEntity
  8
0
  6
Continuous
 62
     7
370
    25
100
AcDbLine
 10
369.8268997995
 20
-69.8916294756
 30
0.0
 11
270.8319504334
 21
-127.0401973032
 31
0.0
  0
LWPOLYLINE
  5
127
330
1F
100
AcDbEntity
  8
0
  6
Continuous
 62
     7
370
    25
100
AcDbPolyline
 90
       44
 70
   128
 43
0.0
 10
270.8319504334
 20
-127.0401973032
 10
271.2360554472
 20
-130.2350957085
 10
271.7750451921
 20
-133.4790834062
 10
272.4474152718
 20
-136.7631059696
 10
273.2512890067
 20
-140.0779972286
 10
274.1844226718
 20
-143.4145048546
 10
275.2442117596
 20
-146.7633161844
 10
276.4276982494
 20
-150.1150842137
 10
277.7315788635
 20
-153.4604536853
 10
279.1522142873
 20
-156.7900872017
 10
280.6856393272
 20
-160.0946912862
 10
282.3275739777
 20
-163.3650423231
 10
284.0734353677
 20
-166.5920123017
 10
285.9183505521
 20
-169.7665942939
 10
287.8571701125
 20
-172.8799275939
 10
289.8844825302
 20
-175.9233224496
 10
291.9946292906
 20
-178.8882843171
 10
294.1817206765
 20
-181.7665375697
 10
296.4396522076
 20
-184.550048597
 10
298.7621216788
 20
-187.2310482274
 10
301.1426467504
 20
-189.8020534129
 10
303.5745830414
 20
-192.2558881158
 10
306.0511426748
 20
-194.5857033375
 10
308.5654132236
 20
-196.7849962352
 10
311.1103770043
 20
-198.8476282726
 10
313.6789306643
 20
-200.7678423529
 10
316.2639050082
 20
-202.5402788878
 10
318.8580850082
 20
-204.1599907573
 10
321.4542299425
 20
-205.6224571171
 10
324.0450936044
 20
-206.9235960176
 10
326.6234445283
 20
-208.0597757967
 10
329.1820861734
 20
-209.0278252163
 10
331.7138770102
 20
-209.8250423143
 10
334.2117504535
 20
-210.4492019452
 10
336.6687345866
 20
-210.8985619915
 10
339.0779716204
 20
-211.1718682261
 10
341.4327370347
 20
-211.2683578127
 10
343.7264583473
 20
-211.1877614353
 10
345.9527334588
 20
-210.9303040497
 10
348.1053485216
 20
-210.4967042557
 10
350.1782952834
 20
-209.8881722916
 10
352.1657878578
 20
-209.1064066558
 10
354.0622788728
 20
-208.1535893664
 10
354.3092505459
 20
-208.0130278138
  0
ARC
  5
128
330
1F
100
AcDbEntity
  8
0
  6
Continuous
 62
     7
370
    25
100
AcDbCircle
 10
297.875018734
 20
-109.6040105081
 30
0.0
 40
25.5602350289254
100
AcDbArc
 50
120.7274372596
 51
151.6648346873
  0
LINE
  5
129
330
1F
100
AcDbEntity
  8
0
  6
Continuous
 62
     7
370
    25
100
AcDbLine
 10
299.2137950066
 20
-111.5849037606
 30
0.0
 11
341.6402018778
 21
-87.0926604059
 31
0.0
  0
LWPOLYLINE
  5
12A
330
1F
100
AcDbEntity
  8
0
  6
Continuous
 62
     7
370
    25
100
AcDbPolyline
 90
       55
 70
   128
 43
0.0
 10
396.4788966618
 20
-167.7348517609
 10
396.0376546377
 20
-170.4342405347
 10
395.4619414692
 20
-173.024973294
 10
394.7533636039
 20
-175.4998209591
 10
393.9138982296
 20
-177.8518778121
 10
392.9458877579
 20
-180.0745807653
 10
391.8520332872
 20
-182.1617276753
 10
390.6353870664
 20
-184.1074946491
 10
389.2993439775
 20
-185.9064522944
 10
387.8476320628
 20
-187.5535808701
 10
386.2843021227
 20
-189.0442842932
 10
384.6137164118
 20
-190.3744029629
 10
382.8405364672
 20
-191.5402253682
 10
380.9697101009
 20
-192.5384984439
 10
379.0064575937
 20
-193.3664366476
 10
376.9562571287
 20
-194.0217297331
 10
374.824829505
 20
-194.5025491961
 10
372.618122175
 20
-194.8075533768
 10
370.3422926486
 20
-194.9358912034
 10
368.0036913116
 20
-194.8872045671
 10
365.6088437056
 20
-194.6616293212
 10
363.1644323199
 20
-194.259794902
 10
360.6772779444
 20
-193.6828225726
 10
358.1543206375
 20
-192.932322294
 10
355.6026003606
 20
-192.0103882329
 10
353.0292373343
 20
-190.9195929179
 10
350.4414121701
 20
-189.6629800618
 10
347.8463458342
 20
-188.244056068
 10
345.2512794984
 20
-186.6667802464
 10
342.6634543342
 20
-184.9355537658
 10
340.0900913079
 20
-183.0552073731
 10
337.538371031
 20
-181.0309879132
 10
335.0154137241
 20
-178.868543689
 10
332.5282593486
 20
-176.5739087004
 10
330.0838479628
 20
-174.153485807
 10
327.6890003569
 20
-171.6140288625
 10
325.3503990198
 20
-168.9626238681
 10
323.0745694934
 20
-166.2066692007
 10
320.8678621635
 20
-163.3538549684
 10
318.7364345398
 20
-160.4121415527
 10
316.6862340747
 20
-157.3897373957
 10
314.7229815675
 20
-154.2950760957
 10
312.8521552013
 20
-151.1367928746
 10
311.0789752567
 20
-147.9237004827
 10
309.4083895458
 20
-144.6647646071
 10
307.8450596056
 20
-141.3690788553
 10
306.393347691
 20
-138.04583938
 10
305.0573046021
 20
-134.7043192185
 10
303.8406583812
 20
-131.3538424183
 10
302.7468039106
 20
-128.0037580189
 10
301.7787934388
 20
-124.6634139646
 10
300.9393280646
 20
-121.3421310212
 10
300.2307501993
 20
-118.0491767665
 10
299.6550370308
 20
-114.7937397316
 10
299.2137950066
 20
-111.5849037606
  0
LINE
  5
12B
330
1F
100
AcDbEntity
  8
0
  6
Continuous
 62
     7
370
    25
100
AcDbLine
 10
432.2968557156
 20
-147.0575841272
 30
0.0
 11
432.2286353316
 21
-147.0969669166
 31
0.0
  0
LINE
  5
12C
330
1F
100
AcDbEntity
  8
0
  6
Continuous
 62
     7
370
    25
100
AcDbLine
 10
397.3359162667
 20
-167.240104874
 30
0.0
 11
396.4788966618
 21
-167.7348517609
 31
0.0
  0
LWPOLYLINE
  5
12D
330
1F
100
AcDbEntity
  8
0
  6
Continuous
 62
     7
370
    25
100
AcDbPolyline
 90
       43
 70
   128
 43
0.0
 10
341.6402018778
 20
-87.0926604059
 10
342.0814439019
 20
-90.3014963769
 10
342.6571570704
 20
-93.5569334119
 10
343.3657349358
 20
-96.8498876665
 10
344.20520031
 20
-100.17117061
 10
345.1732107818
 20
-103.5115146642
 10
346.2670652524
 20
-106.8615990637
 10
347.4837114733
 20
-110.2120758639
 10
348.8197545622
 20
-113.5535960253
 10
350.2714664768
 20
-116.8768355006
 10
351.834796417
 20
-120.1725212524
 10
353.5053821279
 20
-123.431457128
 10
355.2785620725
 20
-126.64454952
 10
357.1493884387
 20
-129.802832741
 10
359.1126409459
 20
-132.897494041
 10
361.162841411
 20
-135.9198981981
 10
363.2942690347
 20
-138.8616116138
 10
365.5009763646
 20
-141.714425846
 10
367.776805891
 20
-144.4703805134
 10
370.1154072281
 20
-147.1217855078
 10
372.510254834
 20
-149.6612424524
 10
374.9546662198
 20
-152.0816653457
 10
377.4418205952
 20
-154.3763003343
 10
379.9647779022
 20
-156.5387445585
 10
382.516498179
 20
-158.5629640184
 10
385.0898612054
 20
-160.4433104112
 10
387.6776863696
 20
-162.1745368917
 10
390.2727527054
 20
-163.7518127133
 10
392.8678190413
 20
-165.1707367071
 10
395.4556442055
 20
-166.4273495632
 10
398.0290072318
 20
-167.5181448782
 10
400.5807275087
 20
-168.4400789393
 10
403.1036848156
 20
-169.1905792179
 10
405.5908391911
 20
-169.7675515474
 10
408.0352505768
 20
-170.1693859665
 10
410.4300981828
 20
-170.3949612125
 10
412.7686995198
 20
-170.4436478487
 10
415.0445290462
 20
-170.3153100221
 10
417.2512363762
 20
-170.0103058414
 10
419.3826639999
 20
-169.5294863784
 10
421.4328644649
 20
-168.8741932929
 10
423.3961169721
 20
-168.0462550892
 10
425.0199286645
 20
-167.1926222227
  0
SPLINE
  5
12E
330
1F
100
AcDbEntity
  8
0
  6
Continuous
 62
     7
370
    25
100
AcDbSpline
210
0.0
220
0.0
230
1.0
 70
     8
 71
     3
 72
    19
 73
    15
 74
     0
 42
0.00000001
 43
0.00000001
 40
0.0
 40
0.0
 40
0.0
 40
0.0
 40
0.0866154530160309
 40
0.1732364011002822
 40
0.2597932617632405
 40
0.3463577103428042
 40
0.4341083462602532
 40
0.5218571979544718
 40
0.6104396649721116
 40
0.6990132002384437
 40
0.7863236177171592
 40
0.8736319388917657
 40
0.9595914352966339
 40
1.0
 40
1.0
 40
1.0
 40
1.0
 10
378.2519374252575
 20
-74.63736909105002
 30
0.0
 10
378.7372937794271
 20
-74.3218037632
 30
0.0
 10
379.7080372798038
 20
-73.69065308736559
 30
0.0
 10
380.8040744015724
 20
-72.51167169559626
 30
0.0
 10
381.5863069142948
 20
-71.20721852186497
 30
0.0
 10
382.0273057068283
 20
-69.80553402517376
 30
0.0
 10
382.1037785174693
 20
-68.3591946783238
 30
0.0
 10
381.8197005071023
 20
-66.91720958420967
 30
0.0
 10
381.1634194086303
 20
-65.54354268512547
 30
0.0
 10
380.1661737532194
 20
-64.29340945858173
 30
0.0
 10
378.8517132927991
 20
-63.21875300046498
 30
0.0
 10
377.2731155830005
 20
-62.36373814403909
 30
0.0
 10
375.8135440150808
 20
-61.81164226034922
 30
0.0
 10
374.8496371150191
 20
-61.63081178180168
 30
0.0
 10
374.5414097512567
 20
-61.5729878346061
 30
0.0
  0
SPLINE
  5
12F
330
1F
100
AcDbEntity
  8
0
  6
Continuous
 62
     7
370
    25
100
AcDbSpline
210
0.0
220
0.0
230
1.0
 70
     8
 71
     3
 72
    10
 73
     6
 74
     0
 42
0.00000001
 43
0.00000001
 40
0.0
 40
0.0
 40
0.0
 40
0.0
 40
0.0981243526102728
 40
0.5490675171330389
 40
1.0
 40
1.0
 40
1.0
 40
1.0
 10
375.2887731439582
 20
-75.80817547183166
 30
0.0
 10
375.3985198886576
 20
-75.78582697542238
 30
0.0
 10
376.0126220052333
 20
-75.66077307077317
 30
0.0
 10
377.0206875892582
 20
-75.27291740500728
 30
0.0
 10
377.8415240538718
 20
-74.84921685629097
 30
0.0
 10
378.2519374252575
 20
-74.63736909105
 30
0.0
  0
LINE
  5
130
330
1F
100
AcDbEntity
  8
0
  6
Continuous
 62
     7
370
    25
100
AcDbLine
 10
374.3854833413
 20
-63.541294808
 30
0.0
 11
371.5565964803
 21
-65.1743764318
 31
0.0
  0
LWPOLYLINE
  5
131
330
1F
100
AcDbEntity
  8
0
  6
Continuous
 62
     7
370
    25
100
AcDbPolyline
 90
       33
 70
   128
 43
0.0
 10
326.6402325655
 20
-101.5337602578
 10
327.5866282717
 20
-102.2696364455
 10
329.9862562181
 20
-104.2465498478
 10
332.3537505337
 20
-106.357791083
 10
334.6818131697
 20
-108.5968520289
 10
336.9632676293
 20
-110.9568305459
 10
339.1910810904
 20
-113.4304517533
 10
341.358386085
 20
-116.0100904549
 10
343.4585016685
 20
-118.6877946444
 10
345.4849540149
 20
-121.4553100184
 10
347.4314963728
 20
-124.3041054213
 10
349.2921283217
 20
-127.2253991429
 10
351.0611142689
 20
-130.2101859899
 10
352.7330011301
 20
-133.2492650444
 10
354.3026351392
 20
-136.3332680271
 10
355.7651777349
 20
-139.4526881762
 10
357.1161204768
 20
-142.5979095526
 10
358.3512989424
 20
-145.7592366823
 10
359.4669055649
 20
-148.9269244436
 10
360.4595013702
 20
-152.0912081075
 10
361.3260265777
 20
-155.2423334386
 10
362.0638100329
 20
-158.3705867631
 10
362.670577441
 20
-161.4663249129
 10
363.1444583781
 20
-164.5200049513
 10
363.4839920565
 20
-167.5222135898
 10
363.6881318282
 20
-170.4636962063
 10
363.7562484109
 20
-173.3353853728
 10
363.6881318282
 20
-176.1284288069
 10
363.4839920565
 20
-178.8342166599
 10
363.1444583781
 20
-181.4444080577
 10
362.670577441
 20
-183.9509568121
 10
362.0638100329
 20
-186.3461362243
 10
361.5693996377
 20
-187.9277046739
  0
LINE
  5
132
330
1F
100
AcDbEntity
  8
0
  6
Continuous
 62
     7
370
    25
100
AcDbLine
 10
342.4404029644
 20
-92.4125160376
 30
0.0
 11
304.2215249177
 21
-114.4758047037
 31
0.0
  0
ARC
  5
133
330
1F
100
AcDbEntity
  8
0
  6
Continuous
 62
     7
370
    25
100
AcDbCircle
 10
394.58165328
 20
-134.5097049675
 30
0.0
 40
39.74758590777844
100
AcDbArc
 50
341.5220391369
 51
351.5481888872
  0
LINE
  5
134
330
1F
100
AcDbEntity
  8
0
  6
Continuous
 62
     7
370
    25
100
AcDbLine
 10
391.4711667508
 20
-164.8439508178
 30
0.0
 11
391.842977615
 21
-164.6293089747
 31
0.0
  0
LINE
  5
135
330
1F
100
AcDbEntity
  8
0
  6
Continuous
 62
     7
370
    25
100
AcDbLine
 10
425.6210014111
 20
-145.1296708987
 30
0.0
 11
433.897573622
 21
-140.3517074631
 31
0.0
  0
LWPOLYLINE
  5
136
330
1F
100
AcDbEntity
  8
0
  6
Continuous
 62
     7
370
    25
100
AcDbPolyline
 90
       52
 70
   128
 43
0.0
 10
304.2215249177
 20
-114.4758047037
 10
304.6790265503
 20
-117.5117375858
 10
305.2684957977
 20
-120.5904173381
 10
305.9881305824
 20
-123.7024320716
 10
306.8357308954
 20
-126.8382679881
 10
307.8087055223
 20
-129.9883384652
 10
308.904079964
 20
-133.143013364
 10
310.1185055311
 20
-136.2926484691
 10
311.4482695805
 20
-139.4276149724
 10
312.8893068659
 20
-142.5383289096
 10
314.4372119653
 20
-145.6152804592
 10
316.0872527492
 20
-148.6490630154
 10
317.8343848474
 20
-151.6304019452
 10
319.6732670697
 20
-154.5501829417
 10
321.5982777352
 20
-157.3994798883
 10
323.6035318579
 20
-160.1695821462
 10
325.6828991381
 20
-162.8520211843
 10
327.8300227034
 20
-165.4385964683
 10
330.0383385425
 20
-167.9214005309
 10
332.3010955719
 20
-170.2928431454
 10
334.6113762751
 20
-172.5456745307
 10
336.9621178499
 20
-174.6730075139
 10
339.3461338004
 20
-176.6683385858
 10
341.7561359074
 20
-178.5255677828
 10
344.1847565083
 20
-180.2390173348
 10
346.6245710221
 20
-181.8034490234
 10
349.0681206464
 20
-183.2140801954
 10
351.5079351602
 20
-184.4665983839
 10
353.9365557611
 20
-185.5571744924
 10
356.346557868
 20
-186.4824745003
 10
358.7305738186
 20
-187.2396696557
 10
361.0813153934
 20
-187.8264451233
 10
363.3915960965
 20
-188.2410070608
 10
365.654353126
 20
-188.4820881033
 10
367.8626689651
 20
-188.5489512374
 10
370.0097925304
 20
-188.4413920546
 10
372.0891598106
 20
-188.1597393761
 10
374.0944139333
 20
-187.7048542474
 10
376.0194245987
 20
-187.0781273064
 10
377.8583068211
 20
-186.2814745318
 10
379.6054389192
 20
-185.3173313854
 10
381.2554797032
 20
-184.1886453672
 10
382.8033848026
 20
-182.8988670043
 10
384.244422088
 20
-181.4519393021
 10
385.5741861374
 20
-179.8522856901
 10
386.7886117045
 20
-178.1047964993
 10
387.8839861462
 20
-176.2148140112
 10
388.856960773
 20
-174.1881161265
 10
389.7045610861
 20
-172.0308987011
 10
390.4241958708
 20
-169.7497566044
 10
391.0136651181
 20
-167.3516635583
 10
391.4711667508
 20
-164.8439508178
  0
LINE
  5
137
330
1F
100
AcDbEntity
  8
0
  6
Continuous
 62
     7
370
    25
100
AcDbLine
 10
359.2202980818
 20
-63.7685686369
 30
0.0
 11
260.2253487156
 21
-120.9171364645
 31
0.0
  0
LINE
  5
138
330
1F
100
AcDbEntity
  8
0
  6
Continuous
 62
     7
370
    25
100
AcDbLine
 10
260.2253487156
 20
-120.9171364645
 30
0.0
 11
270.8319504334
 21
-127.0401973032
 31
0.0
  0
LINE
  5
139
330
1F
100
AcDbEntity
  8
0
  6
Continuous
 62
     7
370
    25
100
AcDbLine
 10
359.2202980818
 20
-58.0527829537
 30
0.0
 11
260.2253487156
 21
-115.2013507813
 31
0.0
  0
LINE
  5
13A
330
1F
100
AcDbEntity
  8
0
  6
Continuous
 62
     7
370
    25
100
AcDbLine
 10
260.2253487156
 20
-115.2013507813
 30
0.0
 11
260.2253487156
 21
-120.9171364645
 31
0.0
  0
LINE
  5
13B
330
1F
100
AcDbEntity
  8
0
  6
Continuous
 62
     7
370
    25
100
AcDbLine
 10
359.2202980818
 20
-49.070834023
 30
0.0
 11
260.2253487156
 21
-106.2194018506
 31
0.0
  0
LINE
  5
13C
330
1F
100
AcDbEntity
  8
0
  6
Continuous
 62
     7
370
    25
100
AcDbLine
 10
359.2202980818
 20
-54.7866197062
 30
0.0
 11
260.2253487156
 21
-111.9351875338
 31
0.0
  0
LINE
  5
13D
330
1F
100
AcDbEntity
  8
0
  6
Continuous
 62
     7
370
    25
100
AcDbLine
 10
260.2253487156
 20
-106.2194018506
 30
0.0
 11
260.2253487156
 21
-111.9351875338
 31
0.0
  0
LINE
  5
13E
330
1F
100
AcDbEntity
  8
0
  6
Continuous
 62
     7
370
    25
100
AcDbLine
 10
260.2253487156
 20
-111.9351875338
 30
0.0
 11
263.0542355767
 21
-113.5682691576
 31
0.0
  0
LINE
  5
13F
330
1F
100
AcDbEntity
  8
0
  6
Continuous
 62
     7
370
    25
100
AcDbLine
 10
304.2215249177
 20
-114.4758047037
 30
0.0
 11
299.2137950066
 21
-111.5849037606
 31
0.0
  0
LINE
  5
140
330
1F
100
AcDbEntity
  8
0
  6
Continuous
 62
     7
370
    25
100
AcDbLine
 10
396.4788966618
 20
-167.7348517609
 30
0.0
 11
391.4711667508
 21
-164.8439508178
 31
0.0
  0
ARC
  5
141
330
1F
100
AcDbEntity
  8
0
  6
Continuous
 62
     7
370
    25
100
AcDbCircle
 10
407.9308652947
 20
-26.065926393
 30
0.0
 40
3.458607793019504
100
AcDbArc
 50
113.7810212791
 51
174.8988377633
  0
LWPOLYLINE
  5
142
330
1F
100
AcDbEntity
  8
0
  6
Continuous
 62
     7
370
    25
100
AcDbPolyline
 90
       16
 70
   128
 43
0.0
 10
418.485956141
 20
-25.7584060055
 10
418.4799764497
 20
-25.5914112067
 10
418.3369740583
 20
-24.9291279379
 10
418.0070937574
 20
-24.289465213
 10
417.4993338216
 20
-23.6898713637
 10
416.8275446184
 20
-23.1467017471
 10
416.0100508061
 20
-22.6747726145
 10
415.0691514847
 20
-22.2869569624
 10
414.030511935
 20
-21.9938333908
 10
412.9224635364
 20
-21.8033975466
 10
411.7752309608
 20
-21.7208440232
 10
410.6201077221
 20
-21.7484246656
 10
409.4886025713
 20
-21.8853871457
 10
408.4115800191
 20
-22.1279954841
 10
407.4184184332
 20
-22.4696319577
 10
406.5362086727
 20
-22.9009776141
  0
LWPOLYLINE
  5
143
330
1F
100
AcDbEntity
  8
0
  6
Continuous
 62
     7
370
    25
100
AcDbPolyline
 90
       23
 70
   128
 43
0.0
 10
357.7458407708
 20
-16.7735376734
 10
359.0591082633
 20
-16.0946851957
 10
360.4937675626
 20
-15.5033537758
 10
362.0324038483
 20
-15.0067213761
 10
363.6563401602
 20
-14.6108164412
 10
365.3458641113
 20
-14.3204447206
 10
367.0804671695
 20
-14.1391309339
 10
368.8390936035
 20
-14.0690759846
 10
370.6003960707
 20
-14.111130245
 10
372.342994745
 20
-14.2647832333
 10
374.045736839
 20
-14.5281698104
 10
375.6879533705
 20
-14.89809282
 10
377.2497100553
 20
-15.370061898
 10
378.7120492828
 20
-15.938347979
 10
380.0572202357
 20
-16.5960528398
 10
381.268894361
 20
-17.3351928344
 10
382.3323635761
 20
-18.1467958046
 10
383.2347188054
 20
-19.0210099896
 10
383.9650066787
 20
-19.9472236136
 10
384.5143624905
 20
-20.9141936977
 10
384.8761178054
 20
-21.9101825352
 10
385.045881404
 20
-22.9231001706
 10
385.0595492698
 20
-23.304802568
  0
LWPOLYLINE
  5
144
330
1F
100
AcDbEntity
  8
0
  6
Continuous
 62
     7
370
    25
100
AcDbPolyline
 90
        9
 70
   128
 43
0.0
 10
353.0595492698
 20
-23.304802568
 10
353.0610681138
 20
-23.1775362208
 10
353.182419994
 20
-22.1623027903
 10
353.4964987159
 20
-21.1609377594
 10
353.9994917893
 20
-20.1855963431
 10
354.6852935596
 20
-19.2481178651
 10
355.5455793223
 20
-18.359882044
 10
356.5699063736
 20
-17.5316708595
 10
357.7458407708
 20
-16.7735376734
  0
ENDSEC
  0
SECTION
  2
OBJECTS
  0
DICTIONARY
  5
C
330
0
100
AcDbDictionary
281
     1
  3
ACAD_GROUP
350
D
  3
ACAD_LAYOUT
350
1A
  3
ACAD_MLINESTYLE
350
17
  3
ACAD_PLOTSETTINGS
350
19
  3
ACAD_PLOTSTYLENAME
350
E
  3
ACAD_SCALELIST
350
47
  3
DWGPROPS
350
145
  0
DICTIONARY
  5
D
102
{ACAD_REACTORS
330
C
102
}
330
C
100
AcDbDictionary
281
     1
  0
DICTIONARY
  5
1A
102
{ACAD_REACTORS
330
C
102
}
330
C
100
AcDbDictionary
281
     1
  3
Layout1
350
1E
  3
Layout2
350
26
  3
Model
350
22
  0
DICTIONARY
  5
17
102
{ACAD_REACTORS
330
C
102
}
330
C
100
AcDbDictionary
281
     1
  3
Standard
350
18
  0
DICTIONARY
  5
19
102
{ACAD_REACTORS
330
C
102
}
330
C
100
AcDbDictionary
281
     1
  0
ACDBDICTIONARYWDFLT
  5
E
102
{ACAD_REACTORS
330
C
102
}
330
C
100
AcDbDictionary
281
     1
  3
Normal
350
F
100
AcDbDictionaryWithDefault
340
F
  0
DICTIONARY
  5
47
102
{ACAD_REACTORS
330
C
102
}
330
C
100
AcDbDictionary
281
     1
  3
A0
350
48
  3
A1
350
49
  3
A2
350
4A
  3
A3
350
4B
  3
A4
350
4C
  3
A5
350
4D
  3
A6
350
4E
  3
A7
350
4F
  3
A8
350
50
  3
A9
350
51
  3
B0
350
52
  3
B1
350
53
  3
B2
350
54
  3
B3
350
55
  3
B4
350
56
  3
B5
350
57
  3
B6
350
58
  3
B7
350
59
  3
B8
350
5A
  3
B9
350
5B
  3
C0
350
5C
  3
C1
350
5D
  3
C2
350
5E
  3
C3
350
5F
  3
C4
350
60
  3
C5
350
61
  3
C6
350
62
  3
C7
350
63
  3
C8
350
64
  3
C9
350
65
  3
D0
350
66
  3
D1
350
67
  3
D2
350
68
  0
XRECORD
  5
145
102
{ACAD_REACTORS
330
C
102
}
330
C
100
AcDbXrecord
280
     1
  1
DWGPROPS COOKIE
  2

  3

  4

  6

  7

  8
b.kav
  9

300
=
301
=
302
=
303
=
304
=
305
=
306
=
307
=
308
=
309
=
 40
0.0
 41
2459741.489488901
 42
2459741.489489086
  1

 90
        0
  0
LAYOUT
  5
1E
102
{ACAD_REACTORS
330
1A
102
}
330
1A
100
AcDbPlotSettings
  1

  2
none_device
  4

  6

 40
0.0
 41
0.0
 42
0.0
 43
0.0
 44
0.0
 45
0.0
 46
0.0
 47
0.0
 48
0.0
 49
0.0
140
0.0
141
0.0
142
1.0
143
1.0
 70
   688
 72
     1
 73
     0
 74
     5
  7

 75
    16
147
1.0
148
0.0
149
0.0
100
AcDbLayout
  1
Layout1
 70
     1
 71
     1
 10
0.0
 20
0.0
 11
420.0
 21
297.0
 12
0.0
 22
0.0
 32
0.0
 14
1.0000000000E+20
 24
1.0000000000E+20
 34
1.0000000000E+20
 15
-1.0000000000E+20
 25
-1.0000000000E+20
 35
-1.0000000000E+20
146
0.0
 13
0.0
 23
0.0
 33
0.0
 16
1.0
 26
0.0
 36
0.0
 17
0.0
 27
1.0
 37
0.0
 76
     0
330
1B
  0
LAYOUT
  5
26
102
{ACAD_REACTORS
330
1A
102
}
330
1A
100
AcDbPlotSettings
  1

  2
none_device
  4

  6

 40
0.0
 41
0.0
 42
0.0
 43
0.0
 44
0.0
 45
0.0
 46
0.0
 47
0.0
 48
0.0
 49
0.0
140
0.0
141
0.0
142
1.0
143
1.0
 70
   688
 72
     1
 73
     0
 74
     5
  7

 75
    16
147
1.0
148
0.0
149
0.0
100
AcDbLayout
  1
Layout2
 70
     1
 71
     2
 10
0.0
 20
0.0
 11
0.0
 21
0.0
 12
0.0
 22
0.0
 32
0.0
 14
0.0
 24
0.0
 34
0.0
 15
0.0
 25
0.0
 35
0.0
146
0.0
 13
0.0
 23
0.0
 33
0.0
 16
1.0
 26
0.0
 36
0.0
 17
0.0
 27
1.0
 37
0.0
 76
     0
330
23
  0
LAYOUT
  5
22
102
{ACAD_REACTORS
330
1A
102
}
330
1A
100
AcDbPlotSettings
  1

  2
none_device
  4
Letter_(8.50_x_11.00_Inches)
  6

 40
6.35
 41
6.35
 42
6.35000508
 43
6.35000508
 44
215.9
 45
279.4
 46
0.0
 47
0.0
 48
0.0
 49
0.0
140
0.0
141
0.0
142
1.0
143
1.0
 70
  1712
 72
     1
 73
     0
 74
     0
  7

 75
     0
147
1.0
148
0.0
149
0.0
100
AcDbLayout
  1
Model
 70
     1
 71
     0
 10
0.0
 20
0.0
 11
279.4
 21
215.9
 12
0.0
 22
0.0
 32
0.0
 14
0.0
 24
0.0
 34
0.0
 15
279.4
 25
215.9
 35
0.0
146
0.0
 13
0.0
 23
0.0
 33
0.0
 16
1.0
 26
0.0
 36
0.0
 17
0.0
 27
1.0
 37
0.0
 76
     0
330
1F
331
29
  0
MLINESTYLE
  5
18
102
{ACAD_REACTORS
330
17
102
}
330
17
100
AcDbMlineStyle
  2
Standard
 70
     0
  3

 62
   256
 51
90.0
 52
90.0
 71
     2
 49
0.5
 62
   256
  6
BYLAYER
 49
-0.5
 62
   256
  6
BYLAYER
  0
ACDBPLACEHOLDER
  5
F
102
{ACAD_REACTORS
330
E
102
}
330
E
  0
SCALE
  5
48
102
{ACAD_REACTORS
330
47
102
}
330
47
100
AcDbScale
 70
     0
300
1:1
140
1.0
141
1.0
290
     1
  0
SCALE
  5
49
102
{ACAD_REACTORS
330
47
102
}
330
47
100
AcDbScale
 70
     0
300
1:2
140
1.0
141
2.0
290
     0
  0
SCALE
  5
4A
102
{ACAD_REACTORS
330
47
102
}
330
47
100
AcDbScale
 70
     0
300
1:4
140
1.0
141
4.0
290
     0
  0
SCALE
  5
4B
102
{ACAD_REACTORS
330
47
102
}
330
47
100
AcDbScale
 70
     0
300
1:5
140
1.0
141
5.0
290
     0
  0
SCALE
  5
4C
102
{ACAD_REACTORS
330
47
102
}
330
47
100
AcDbScale
 70
     0
300
1:8
140
1.0
141
8.0
290
     0
  0
SCALE
  5
4D
102
{ACAD_REACTORS
330
47
102
}
330
47
100
AcDbScale
 70
     0
300
1:10
140
1.0
141
10.0
290
     0
  0
SCALE
  5
4E
102
{ACAD_REACTORS
330
47
102
}
330
47
100
AcDbScale
 70
     0
300
1:16
140
1.0
141
16.0
290
     0
  0
SCALE
  5
4F
102
{ACAD_REACTORS
330
47
102
}
330
47
100
AcDbScale
 70
     0
300
1:20
140
1.0
141
20.0
290
     0
  0
SCALE
  5
50
102
{ACAD_REACTORS
330
47
102
}
330
47
100
AcDbScale
 70
     0
300
1:30
140
1.0
141
30.0
290
     0
  0
SCALE
  5
51
102
{ACAD_REACTORS
330
47
102
}
330
47
100
AcDbScale
 70
     0
300
1:40
140
1.0
141
40.0
290
     0
  0
SCALE
  5
52
102
{ACAD_REACTORS
330
47
102
}
330
47
100
AcDbScale
 70
     0
300
1:50
140
1.0
141
50.0
290
     0
  0
SCALE
  5
53
102
{ACAD_REACTORS
330
47
102
}
330
47
100
AcDbScale
 70
     0
300
1:100
140
1.0
141
100.0
290
     0
  0
SCALE
  5
54
102
{ACAD_REACTORS
330
47
102
}
330
47
100
AcDbScale
 70
     0
300
2:1
140
2.0
141
1.0
290
     0
  0
SCALE
  5
55
102
{ACAD_REACTORS
330
47
102
}
330
47
100
AcDbScale
 70
     0
300
4:1
140
4.0
141
1.0
290
     0
  0
SCALE
  5
56
102
{ACAD_REACTORS
330
47
102
}
330
47
100
AcDbScale
 70
     0
300
8:1
140
8.0
141
1.0
290
     0
  0
SCALE
  5
57
102
{ACAD_REACTORS
330
47
102
}
330
47
100
AcDbScale
 70
     0
300
10:1
140
10.0
141
1.0
290
     0
  0
SCALE
  5
58
102
{ACAD_REACTORS
330
47
102
}
330
47
100
AcDbScale
 70
     0
300
100:1
140
100.0
141
1.0
290
     0
  0
SCALE
  5
59
102
{ACAD_REACTORS
330
47
102
}
330
47
100
AcDbScale
 70
     0
300
1/128" = 1'-0"
140
0.0078125
141
12.0
290
     0
  0
SCALE
  5
5A
102
{ACAD_REACTORS
330
47
102
}
330
47
100
AcDbScale
 70
     0
300
1/64" = 1'-0"
140
0.015625
141
12.0
290
     0
  0
SCALE
  5
5B
102
{ACAD_REACTORS
330
47
102
}
330
47
100
AcDbScale
 70
     0
300
1/32" = 1'-0"
140
0.03125
141
12.0
290
     0
  0
SCALE
  5
5C
102
{ACAD_REACTORS
330
47
102
}
330
47
100
AcDbScale
 70
     0
300
1/16" = 1'-0"
140
0.0625
141
12.0
290
     0
  0
SCALE
  5
5D
102
{ACAD_REACTORS
330
47
102
}
330
47
100
AcDbScale
 70
     0
300
3/32" = 1'-0"
140
0.09375
141
12.0
290
     0
  0
SCALE
  5
5E
102
{ACAD_REACTORS
330
47
102
}
330
47
100
AcDbScale
 70
     0
300
1/8" = 1'-0"
140
0.125
141
12.0
290
     0
  0
SCALE
  5
5F
102
{ACAD_REACTORS
330
47
102
}
330
47
100
AcDbScale
 70
     0
300
3/16" = 1'-0"
140
0.1875
141
12.0
290
     0
  0
SCALE
  5
60
102
{ACAD_REACTORS
330
47
102
}
330
47
100
AcDbScale
 70
     0
300
1/4" = 1'-0"
140
0.25
141
12.0
290
     0
  0
SCALE
  5
61
102
{ACAD_REACTORS
330
47
102
}
330
47
100
AcDbScale
 70
     0
300
3/8" = 1'-0"
140
0.375
141
12.0
290
     0
  0
SCALE
  5
62
102
{ACAD_REACTORS
330
47
102
}
330
47
100
AcDbScale
 70
     0
300
1/2" = 1'-0"
140
0.5
141
12.0
290
     0
  0
SCALE
  5
63
102
{ACAD_REACTORS
330
47
102
}
330
47
100
AcDbScale
 70
     0
300
3/4" = 1'-0"
140
0.75
141
12.0
290
     0
  0
SCALE
  5
64
102
{ACAD_REACTORS
330
47
102
}
330
47
100
AcDbScale
 70
     0
300
1" = 1'-0"
140
1.0
141
12.0
290
     0
  0
SCALE
  5
65
102
{ACAD_REACTORS
330
47
102
}
330
47
100
AcDbScale
 70
     0
300
1-1/2" = 1'-0"
140
1.5
141
12.0
290
     0
  0
SCALE
  5
66
102
{ACAD_REACTORS
330
47
102
}
330
47
100
AcDbScale
 70
     0
300
3" = 1'-0"
140
3.0
141
12.0
290
     0
  0
SCALE
  5
67
102
{ACAD_REACTORS
330
47
102
}
330
47
100
AcDbScale
 70
     0
300
6" = 1'-0"
140
6.0
141
12.0
290
     0
  0
SCALE
  5
68
102
{ACAD_REACTORS
330
47
102
}
330
47
100
AcDbScale
 70
     0
300
1'-0" = 1'-0"
140
12.0
141
12.0
290
     0
  0
ENDSEC
  0
EOF
